Cifra Club

Addicted To Love

Robert Palmer

Tab de baixo: Principal
exibições 1.554
Tabbed by: cianormo + my brother

I don’t think there are any tabs for this so here it is.

P.S. For anyone who knows any Organic Chemistry search for “Resistant to Base” on youtube…

Main Riff
G|----------------------------------------------------------------|
D|----------------------------------------------------------------|
A|---5---3-----------5---3-----------3---1-----------3---1--------|
E|-5---5---5-3-5---5---5---5-3-5---3---3---3-1-3---3---3---3-1-3--|

G|----------------------------------------------------------------|
D|----------------------------------------------------------------|
A|---5---3---3-5-----5---3---3-5-----3---1-----------3---1--------|
E|-5---5---5-------5---5---5-------3---3---3-1-3---3---3---3-1-3--|

Play this bit just before the Break right here         |--3-3-2---|

Break
G|----------------------------------------------------------------|
D|------------------------------------------7-7-7---------7-7-7---|
A|-----------------5-----5--5-----------5-------------5-----------|
E|----2-----2--2------------------5---5---5---------5---5---------|

G|----------------------------------------------------------------|
D|----------------------------------------------------------------|
A|-----------------5-----5--5-----5/12~~~-----------9\------------|
E|----2-----2--2--------------------------------------------------|

Song Structure:
Main Riff x4 (00:19)
Break x1
Main Riff x2
Break x1
Main Riff x3
Break x1
Main Riff till the end and fade out.
Composição: Robert Palmer

0 comentários

mostrar mais comentários

Conseguiu tocar?

0 tocaram 0 ainda não

Grave um vídeo tocando Addicted To Love e mande pra gente!

00:00 / 00:00
outros vídeos desta música
repetir qualidade Automático
Outros vídeos desta música
00:00 / 00:00
Automático
OK