Fique Na Minha Vida (part. Vitor Kley)

Roberta Campos

tom: A (forma dos acordes no tom de G ) Capotraste na 2ª casa
[Ritmo Padrão]

   G                          C9
E|---3-x-3----3-x-3----3-x-3----3-x-3----------|
B|---3-x-3----3-x-3----3-x-3----3-x-3----------|
G|---0-x-0----0-x-0----0-x-0----0-x-0----------|
D|-----x--------x--------x--------x------------|
A|-----x--------x--------x----3---x------------|
E|-3---x----3---x----3---x--------x------------|

            Am7               D11
E|---3-x-3----0-x-0----0-x-0----0-x-0----------|
B|---3-x-3----1-x-1----1-x-1----3-x-3----------|
G|---0-x-0----0-x-0----0-x-0----0-x-0----------|
D|-----x--------x--------x--------x------------|
A|-3---x----0---x----0---x----5---x------------|
E|-----x--------x--------x--------x------------|

E|---0-x-0-------------------------------------|
B|---3-x-3-------------------------------------|
G|---0-x-0-------------------------------------|
D|-----x---------------------------------------|
A|-5---x---------------------------------------|
E|-----x---------------------------------------|

[Primeira Parte]

 G
Pelo seu sorriso eu me apaixonei
 C9
Foi o seu olhar que falou pra mim
           Am7
Me queira na tua vida
            D11           G
Me leve em seu abraço,daqui

[Segunda Parte]

Sua voz me diz o que eu quero ouvir
 C9
Seu cheiro me leva pra longe daqui
               Am7
Não vejo mais saída
            D11
Nem quero uma saída

[Refrão]

[Riff]

 C9
Dorme no meu peito
 Am7        D11      G
Faça o seu ninho em mim

  C9
Acorde com meus beijos
  Am7            D11
Acorde com meus beijos

C9                   G
Ahh, fique na minha vida
C9                   G
Ahh, fique na minha vida

Am7    C  D11  G (Riff)
Ahh... ahh

   G
E|---------------------------------------------|
B|---3-----0-----------------------------------|
G|-------2-------0-----------------------------|
D|-------------4---2-2h4p0---------------------|
A|-----x-----x---------------------------------|
E|-3---x-----x---------------------------------|

[Segunda Parte]

 G
Tua voz me diz o que eu quero ouvir
 C9
Seu cheiro me leva pra longe daqui
               Am7
Não vejo mais saída
            D11
Nem quero uma saída

[Refrão]

 C9
Dorme no meu peito
 Am7        D11      G
Faça o seu ninho em mim

  C9
Acorde com meus beijos
  Am7            D11
Acorde com meus beijos

C9                   G
Ahh, fique na minha vida
C9                   G
Ahh, fique na minha vida
C9                   G
Ahh, fique na minha vida
C9                   G
Ahh, fique na minha vida

Am7    C  D11  G 
Ahh... ahh
Página 1 / 1

Letras e título
Acordes e artista

resetar configurações
OK