É Preciso Saber Viver

Roberto Carlos

Composição de: Erasmo Carlos / Roberto Carlos
tom: D
D                        D7+
  Quem espera que a vida, seja feita de ilusão

e|-------------7---7-|-------------7---|
B|-7-8-9-9-9-9---9---|-7-8-9-9-9-9---9-|
G|-------------------|-----------------|
D|-------------------|-----------------|
A|-------------------|-----------------|
E|-------------------|-----------------|

        D7                   G
 Pode até ficar maluco, ou viver na solidão

e|-------------7---7-|-----------------|
B|-7-8-9-9-9-9---9---|-7-8-9-9-9-9-7-8-|
G|-------------------|-----------------|
D|-------------------|-----------------|
A|-------------------|-----------------|
E|-------------------|-----------------|
      Gm                          D           Bm
 É preciso ter cuidado, pra mais tarde não sofrer

e|-------------------|-----------------|
B|-5-6-8-6-6-5-8-6---|-5-6-8-6-6-5-5---|
G|-------------------|-----------------|
D|-------------------|-----------------|
A|-------------------|-----------------|
E|-------------------|-----------------|

 E          G      A    E          G      A
É preciso saber viver, é preciso saber viver

e|------------------|------------------|
B|-6-6-5-5-8-8-8-10-|-6-6-5-5-8-8-8-10-|
G|------------------|------------------|
D|------------------|------------------|
A|------------------|------------------|
E|------------------|------------------|
Página 1 / 1

Letras e título
Acordes e artista

resetar configurações
OK