Enviar cifraEntrar

Ao Redor Rei

Rodolfo Abrantes

Cifra: Principal
exibições 125.438
Tom: F
Intro: Dm  Bb  Gm  F
Riff Intro:

E|--------------------------------------
B|--------------------------------------
G|-2b-2b-5h7p5-2b-2b-5h7p5
D|-0--0--0-----0--0--0----0--------
A|--------------------------------------
E|--------------------------------------  (4x)


Riff 2
Repete por toda a estrofe 1 e 2

E|------------------------------------------------------------------------------------------------------
B|-10-10-10-10-10-10-10-10-6-6-6-6-6-6-6-6-8-8-8-8-8-8-8-8-6-6-6-6-6-6-6-6
G|-7--7---7---7--7--7--7--7--7--7-7-7-7-7-7-7-7-7-7-7-7-7-7-7-7-7-7-7-7-7-7-7-7
D|------------------------------------------------------------------------------------------------------
A|------------------------------------------------------------------------------------------------------
E|------------------------------------------------------------------------------------------------------


Dm     Bb   Gm           F
Quero voar ao redor do Rei
Dm                      Bb
Com os anjos Te contemplar
      Gm          F
Pela eternidade
Dm          Bb
Suspenso no ar
     Gm                F
Teu Espírito leva-me além
Dm                    Bb
De onde esse mundo me deixa ir
      Gm           F
Voltarei ao ventre

  Bb            Gm
Me deito em Teu peito
  F                C
É onde acaba minha dor

F                      Bb
Abre o céu pra eu Te ver
     Dm          C
Exaltado como está
            Gm
Não há mais véu
             Bb
Hoje eu sou livre
       F             C
Tudo o que eu vi em Ti
            Dm
Me fez Te amar.

Repete Intro: Dm  F  Gm  F

Riff 2
Repete por toda a estrofe 5 e 6

E|------------------------------------------------------------------------------------------------------
B|-10-10-10-10-10-10-10-10-6-6-6-6-6-6-6-6-8-8-8-8-8-8-8-8-6-6-6-6-6-6-6-6
G|-7--7---7---7--7--7--7--7--7--7-7-7-7-7-7-7-7-7-7-7-7-7-7-7-7-7-7-7-7-7-7-7-7
D|------------------------------------------------------------------------------------------------------
A|------------------------------------------------------------------------------------------------------
E|------------------------------------------------------------------------------------------------------


Dm               Bb
Quem teria esse amor
     Gm                    F
Ser capaz de morrer por alguém
Dm                Bb
Quem sofreria em meu lugar
     Gm                 F
Para que eu pudesse subir
Dm                 Bb
Só existe um Senhor
        Gm                F
A quem meu coração entreguei
Dm                     Bb
Ele me deu asas pra voar
Gm            C
Ao redor do Rei

  Bb            Gm
Me deito em Teu peito
  F                 C
É onde acaba minha dor

F                      Bb
Abre o céu pra eu Te ver
     Dm          C
Exaltado como está
            Gm
Não há mais véu
             Bb
Hoje eu sou livre
       F             C
Tudo o que eu vi em Ti

Me atrai.

F                      Bb
Abre o céu pra eu Te ver
     Dm          C
Exaltado como está
            Gm
Não há mais véu
             Bb
Hoje eu sou livre
      F            C
Tudo que eu vi em ti me fez te amar

Bb
Toda terra diz que é santo, santo
Dm                 Am
os anjos dizem que é santo, santo      (3x)
Bb
o teu povo diz que é santo, santo
Dm                   Am
pois não há outro Deus santo, santo

Bb
Toda terra diz que é santo, santo
 Dm                 Am
os anjos dizem que é santo, santo      (3x)
Bb
o teu povo diz que é santo, santo
 Dm                  Am
pois não há outro Deus...

Solo harmonia: Dm  Bb  Gm  F (2x)
Solo guitarra em power-cord: D G A  D G A  D G A  F A G F (2x)

F                      Bb
Abre o céu pra eu Te ver
     Dm          C
Exaltado como está
            Gm
Não há mais véu
             Bb
Hoje eu sou livre
       F             C
Tudo o que eu vi em Ti

Me atrai.

F                      Bb
Abre o céu pra eu Te ver
     Dm          C
Exaltado como está
            Gm
Não há mais véu
             Bb
Hoje eu sou livre
       F             C
Enquanto estiver em Ti
             F     Bb
Vou Descansar
      Dm         C
Vou descansar em Ti
             Gm
Vou Descansar.


E|--------------------------------------
B|--------------------------------------
G|-2b-2b-5h7p5-2b-2b-5h7p5
D|-0--0--0-----0--0--0----0--------
A|--------------------------------------
E|--------------------------------------  (4x)
  • 1
  • 2
  • 3
  • 4
  • 5
  • 6
  • 7
  • 8
  • 9
  • 10
  • 11
  • 12

    0 comentários

      mostrar mais comentários

      Conseguiu tocar?

      16tocaram0ainda não

      Grave um vídeo tocando Ao Redor Rei e mande pra gente!

      00:00 / 00:00
      outros vídeos desta música
      repetirqualidadeautomática
      • automática
      Outro vídeos desta música
        00:00 / 00:00
        automática
        • automática
        Acordes para:violão e guitarra
        dificuldadeexibiçõescontribuições
        1 versão de Tab de baixoexibiçõescontribuições
        2 versões de Guitar Proformatodownloadscontribuição
        fecharplay/pause subir/descer velocidade
          acordes
          fechar
          OK
          Feedback