Cifra Club

Até Que a Casa Esteja Cheia

Rodolfo Abrantes

Cifra: Principal
exibições 289.482
Tom: E
[Riff 1]

E|-------------------------------------------------------------|
B|-------------------------------------------------------------|
G|-------------------------------------------------------------|
D|-------------------6--4--2------------------------6--7--9----|
A|---2h4---2---2---0--0--0-------2h4---2---2----0--0--0--------|
E|---0-------4p0-0-----------------0-------4p0-0---------------|

 E           A
Desse amor, sou mais uma vitima
E            A
Ele me têm, desde o primeiro dia
 E           A
Nosso encontro já se aproxima
E            A
Eu posso Te ouvir chamar meu nome

F#m            A9                               C#m
    Vou me deitar e com os olhos percorrer o caminho do sol
         G#m                                A9
Eu vejo correr como alguém que nunca se cansou
         B9   E
Sim eu quero ser essa peça que funciona
  B9                     A9
Até o Teu sonho se realizar

[Riff 1]

 E          A
No silencio eu sinto a Tua brisa
E                  A
E quando penso em Ti Tua mão me acaricia
 E              A
Vem de dentro, cada cor desse jardim
 E                       A                   F#m
Desde que a luz nasceu, nada é tão real pra mim

     A9                             C#m
Vou me deixar levar como uma nuvem pelo vento e ver
            G#m                             A9
A terra passar do alto é simples como deve ser
         B9   E
Sim eu quero ter um coração ligado ao Teu
        B9                              A9
Pra que onde eu for seja Você em meu lugar

                C#m                    G#m
Que das minhas feridas saia poder pra curar
                  A                                 E
Que cada hora perdida me lembre que não é pra eu parar
                        F#m                     A
Ate que a casa esteja cheia, ate que Teu reino venha
                              E          B9     F#m
E cada coisa esteja em seu lugar como o Pai sonhou
        A9                     E
Toda a Terra cheia da Sua Glória

[Interlúdio]

E|-------------------------------------------------------------------------|
B|----5/9-9-10-9-9-5---5/10-10-9-12---5/9-9-10-9-9/5---5/10-10-9--/17------|
G|-------------------------------------------------------------------------|
D|-------------------------------------------------------------------------|
A|-------------------------------------------------------------------------|
E|-------------------------------------------------------------------------|

E|-----------------------------------------------------------------------|
B|-----------------------------------------------------------------------|
G|-----------------------------------------------------------------------|
D|-------------------6--4--2------------------------6--7--9--------------|
A|---2h4p2---2---2---0--0--0-------2h4p2---2---2----0--0--0--------------|
E|---0-------4p0-0-----------------0-------4p0-0-------------------------|

 E           A
Desse amor, sou mais uma vitima
E            A
Ele me têm, desde o  primeiro dia
 E              A
Nosso encontro já se aproxima
E                A
Eu posso ouvir chamar meu nome

F#m            A9                               C#m
    Vou me deitar e com os olhos percorrer o caminho do sol
         G#m                                A9
Eu vejo correr como alguém que nunca se cansou
         B9   E
Sim eu quero ser essa peça que funciona
  B9                     A9
Até o Teu sonho se realizar

[Solo]

E|-------------------------------------------------------------|
B|---------------10--9-----------------------------------------|
G|--------9--------------------9------8------------------------|
D|-9/11------11---------9/11------11------9--------------------|
A|--------------------------------------------11--12---14--11--|
E|-------------------------------------------------------------|

E|-------------------------------------------------------------|
B|-------------------------------------------------------------|
G|---------------------------------9---------------------------|
D|---------------------------9/11------------------------------|
A|--9/11--9--7--9--7-----7-------------------------------------|
E|--------------------9----------------------------------------|

E|-------------------------------------------------------------|
B|--------12-------12/14--12----12-----12----------17----17----|
G|-11/13-------13------------13-----13------13/16-----16-------|
D|-------------------------------------------------------------|
A|-------------------------------------------------------------|
E|-------------------------------------------------------------|

E|-----------------------------------16----16-----16----16-----|
B|----17-16------19-----19-----19------------------------------|
G|-16--------16------16----16-----16----16----16-----16--------|
D|-------------------------------------------------------------|
A|-------------------------------------------------------------|
E|-------------------------------------------------------------|

E|------17----17------19----------19----------19---------------|
B|------------------------17----------17----------17-----------|
G|-16/18---18----18----------18~---------18~---------18~-------|
D|-------------------------------------------------------------|
A|-------------------------------------------------------------|
E|-------------------------------------------------------------|

0 comentários

    mostrar mais comentários

    Conseguiu tocar?

    47tocaram1ainda não

    Grave um vídeo tocando Até Que a Casa Esteja Cheia e mande pra gente!

    00:00 / 00:00
    outros vídeos desta música
    repetirqualidadeautomática
    Outro vídeos desta música
      00:00 / 00:00
      automática
      OK