Enviar cifraEntrar

Seja Feita a Tua Vontade

Rodolfo Abrantes

Cifra: Principal
exibições 77.616
Tom: E
Intro: 

E|-9----9----12----12--------------------------------|(4x)
x|----5----5------9------9--9----9----12----12----|
x|--------------------------------8----8------8------8-|
x|-----------------------------------------------------------4-6-4--------|
x|--------------------------------------------------------------------7-4--|
E|--------------------------------------------------------------------------|

C#m   E   G#m   B
C#m   E   F#m   E (2x)
C#m   E   G#m   B
C#m   E   F#m



C#m
Não vivo sem poder ouvir o som 
G#m
Da tua voz falando a mim
C#m
De tão perto
        A          E
Quase posso te tocar
C#m
Como um segredo
G#m
Que eu sempre quis
B              A
Alguem pra contar

C#m
Fiel pra terminar o que começou
G#m
Eu não posso parar aqui
C#m                 A
Cada passo que eu dou
                E
É pra te alcançar
C#m                 G#m          B  A
És o caminho que eu decidi trilhar ao tocar

C#m            G#m
O fogo do Monte
C#m    A       E
O fogo do altar
C#m         G#m
o Filho do Homem vem
      B        A
com brasas vivas

Refrão:
E             G#m
Ao rei toda força e majestade
A                F#m      A             B
Pois digno  digno és      Digno digno és
E           G#m
Amém  seja feita a tua vontade
A               F#m         B
Meu Jesus não tarde por vir
Solo:

E|-----------------7-9-7----------------------------------------------|
B|--7-9-7-----7-9--------9-9--7-9-7------------7/9--7---7----------6--|
G|--------9-6-----------------------9-6----6-9--------9---9----6-9----|
D|--------------------------------------7-7---------------------------|
A|--------------------------------------------------------------------|
E|--------------------------------------------------------------------|


C#m
Palavras não descrevem o teu amor
G#m
Nem o abraço que eu recebi
A
Deitado no teu colo
E
Eu posso sonhar

C#m
Com a estrada que eu nunca
G#m                B   A
Imaginai um dia andar

C#m
Agora que o grande construtor
G#m
Fez a escada eu vou subir
C#m
Quem quiser vir junto
A               E
Ouça Deus chamar
C#m
Ao anjos e aos teus santos
G#m             B  A
Eu quero me juntar
Pra cantar

C#m                 G#m
Que outro igual não ouve
C#m    A        E
Outro não haverá
C#m              G#m
O filho do homem vem
      B          A
Com fogo e glória

Refrão 2x:
 C#m  G#m  C#m E A E
Santo... Santo.. Santo é o senhor... (4x)
( Teclado e Instrumental acompanham apenas
depois fica de fundo com Rodolfo cantanto
o trecho abaixo... )

C#m         G#m
Quando eu Chorar  Consola-me...

C#m  E            A          E
No teu altar eu nunca estive só

C#m      G#m                      (2x)
Pra te adorar  foi que eu nasci...

C#m  E               A        E
vou me tornar dos servos o menor!

(Parece que a música encerrou  mais Rodolfo faz uma Oração
depois volta ao refrão e termina!)

(refrão)
  • 1
  • 2
  • 3
  • 4
  • 5
  • 6
  • 7
  • 8
  • 9
  • 10
  • 11
  • 12
    Acordes para:

      0 comentários

        mostrar mais comentários

        Conseguiu tocar?

        12tocaram0ainda não

        Grave um vídeo tocando Seja Feita a Tua Vontade e mande pra gente!

        00:00 / 00:00
        outros vídeos desta música
        repetirqualidadeautomática
        • automática
        Outro vídeos desta música
          00:00 / 00:00
          automática
          • automática
          Acordes para:violão e guitarra
          dificuldadeexibiçõescontribuições
          fecharplay/pause subir/descer velocidade
            acordes
            fechar
            OK
            Feedback