Enviar cifraEntrar

Seja Feita a Tua Vontade

Rodolfo Abrantes

Cifra: Principal
exibições 85.959
Tom: E
[Intro]


E|-9----9----12----12------------------------------------------------------|
B|----5----5------9------9--9----9----12----12-----------------------------|
G|--------------------------------8----8------8------8---------------------|
D|-----------------------------------------------------------4-6-4---------|
A|--------------------------------------------------------------------7-4--|
E|-------------------------------------------------------------------------|


C#m   E   G#m   B
C#m   E   F#m   E
C#m   E   G#m   B
C#m   E   F#m

 C#m
Não vivo sem poder ouvir o som 
 G#m
Da tua voz falando a mim
 C#m
De tão perto
       A          E
Quase posso te tocar
 C#m
Como um segredo
  G#m
Que eu sempre quis
B              A
Alguem pra contar

 C#m
Fiel pra terminar o que começou
G#m
Eu não posso parar aqui
 C#m               A
Cada passo que eu dou
               E
É pra te alcançar
C#m                  G#m        B  A
És o caminho que eu decidi trilhar ao tocar

C#m           G#m
O fogo do Monte
C#m     A    E
O fogo do altar
C#m         G#m
O Filho do Homem vem
      B       A
Com brasas vivas

E            G#m
Ao rei toda força e majestade
 A                F#m      A          B
Pois digno  digno és      Digno digno és
E           G#m
Amém  seja feita a tua vontade
 A             F#m       B
Meu Jesus não tarde por vir

[Solo]


E|-----------------7-9-7------------------------------------------------|
B|--7-9-7-----7-9--------9-9--7-9-7------------7/9--7---7---------------|
G|--------9-6-----------------------9-6----6-9--------9---9-------------|
D|--------------------------------------7-7-----------------------------|
A|-------------------------------------------------------------------2-4|
E|-------------------------------------------------------------0-2-4----|


 C#m
Palavras não descrevem o teu amor
 G#m
Nem o abraço que eu recebi
 A
Deitado no teu colo
E
Eu posso sonhar

 C#m
Com a estrada que eu nunca
G#m                B   A
Imaginai um dia andar

C#m
Agora que o grande construtor
 G#m
Fez a escada eu vou subir
  C#m
Quem quiser vir junto
A             E
Ouça Deus chamar
C#m
Ao anjos e aos teus santos
G#m             B  A
Eu quero me juntar
Pra cantar

  C#m               G#m
Que outro igual não ouve
C#m    A       E
Outro não haverá
C#m               G#m
O filho do homem vem
     B         A
Com fogo e glória

 C#m  G#m  C#m  E  A  E
Santo...  Santo.. Santo é o senhor


  C#m         G#m
Quando eu Chorar  Consola-me
 C#m  E            A         E
No   teu altar eu nunca estive só
  C#m      G#m
Pra te adorar  foi que eu nasci

 C#m  E                A       E
Vou  me tornar dos servos o menor!
  • 1
  • 2
  • 3
  • 4
  • 5
  • 6
  • 7
  • 8
  • 9
  • 10
  • 11
  • 12

    0 comentários

      mostrar mais comentários

      Conseguiu tocar?

      13tocaram0ainda não

      Grave um vídeo tocando Seja Feita a Tua Vontade e mande pra gente!

      00:00 / 00:00
      outros vídeos desta música
      repetirqualidadeautomática
      • automática
      Outro vídeos desta música
        00:00 / 00:00
        automática
        • automática
        Acordes para:violão e guitarra
        dificuldadeexibiçõescontribuições
        fecharplay/pause subir/descer velocidade
          Acordes para:violão e guitarra
          acordes
          fechar
          OK