Cifra Club

Califórnia Azul

Rodrigo Campos

Cifra: Principal (violão e guitarra)
tom: D
[Intro] G  F#m  D  Em

E|----------------------|----------------------|-----------------------|-------------------------|
B|-----------------0-0--|-----------------2-2--|-----------------0-0---|-------------------0-0---|
G|-----------------0-0--|-----------------0-0--|-----------------2-2---|-------------------0-0---|
D|----4---2-------------|---4---2--------------|-----------------4-4---|-------------------------|
A|----------------------|----------------------|-------------5---------|----4---2----------------|
E|-------------3--------|------------2---------|----3---5--------------|--------------0----------|

 G7+
Não tava lá fazendo cera
 Bm/F#
Ele não tá de brincadeira
 D
Malandro se jogou no asfalto
 Em
Carregado na canseira

 G7+
Deixou a mina na calçada
 Bm/F#
Como é bonita e safada
 D
Fica me olhando desse jeito
 Em
E eu não posso fazer nada

 G7+
Já dei plantão na rua dela
 Bm7/F#
E o namorado na favela
 D
Moleque que já tem cartaz
 Em
E a menina dando trela

( D  C#m  C7+  D  C7+  Em )

E|----------------------------------|--------------------------------------|-------------------------|
B|----------------------------------|--------------------------------------|-------------------0-0-|
G|----------------------------------|--------------------------------------|-------------------0-0-|
D|------5---4---2---0---------------|--------------------------------------|-------------------------|
A|-------------------------4--------|------3-----4-----5-----4-----3-------|----4---2----------------|
E|------0---------------------------|--------------------------------------|--------------0----------|

Em                      C#m7(b5)
Compro uma pistola do vapor
Em                      C#m7(b5)
Visto o jaco califórnia azul
C7+         C#m7(b5)      Em/D     C#7m(b5)
Faço uma mandinga pro terror
    C7+     Em
E vou...
 G7+
Se eu fosse um cara diferente
 Bm/F#
Chegava junto de repente
 D
Beijava a boca e tudo mais
 Em
Pelo tesão que a gente sente

Em                      C#m7(b5)
Compro uma pistola do vapor
Em                      C#m7(b5)
Visto o jaco califórnia azul
C7+         C#m7(b5)      Em/D     C#7m(b5)
Faço uma mandinga pro terror
    C7+     Em
E vou
00:00 / 00:00
Outros vídeos desta música
Repetir
Outros vídeos desta música
Composição de Rodrigo Campos
Colaboração e revisão:
  • Fabio Nakashima
  • Rafael Marcon
10.858 exibições
    • ½ Tom
    • A
    • Bb
    • B
    • C
    • Db
    • D
    • Eb
    • E
    • F
    • F#
    • G
    • Ab
  • Adicionar à lista

    0 comentários

    Ver todos os comentários

    Entre para oCifra Club PRO

    Tenha acesso a benefícios exclusivos no App e no Site

    • Chega de anúncios

    • Prioridade de compra em lançamentos

    • Mais recursos no app do Afinador

    • Atendimento Prioritário

    • Descontos nos produtos Cifra Club

    • Ajude a produzir mais conteúdo

    00:00 / 00:00

    Cifra Club Pro

    Aproveite o Cifra Club com benefícios exclusivos e sem anúncios
    Cifra Club Pro
    Aproveite o Cifra Club com benefícios exclusivos e sem anúncios
    OK