Cifra Club

Aprenda

Piratas do Caribe

Rodrigo Santos

Cifra: Principal (violão e guitarra)
Já pensou em usar uma coleção de roupas do Cifra Club? Responda as perguntas abaixo e nos ajude nessa missão! →
tom: D
E|--------------------------------------------------------------------------------------------------------------
A|--------------------------------------------------------------------------------------------------------------
D|----0----------------------0-----0-----------------------0----0----------------------------0---------0-------0
G|-2---------3-------0---------2-----------3-------0---------2----------3-------0-------0---------0-------------
B|--1-2-2-2--------------3-1-3---1-2-2-2---------------3-1-3--1-2-2-2--------------------3-5-6-6---3-6-5-5-3-1-3
E|---------0-1-1-1-3-0-0-----------------0-1-1-1-3-0--0---------------0-1-1-1-3-6-6-5-3-5-------3-5-------------

E|-------------------------------------------------------------------------------------------------------------------------------
A|-------------------------------------------------------------------------------------------------------------------------------
D|----0----------------------0-----0-----------------------0----0----------------------------0---------0------0-0-0-0-0-0-0-0-0-0
G|-2---------3-------0---------2-----------3-------0---------2----------3-------0-------0---------0-----0------------------------
B|--1-2-2-2--------------3-1-3---1-2-2-2---------------3-1-3--1-2-2-2--------------------3-5-6-6-------3------3-5-5-6-8-6-5-6-5-3
E|---------0-1-1-1-3-0-0-----------------0-1-1-1-3-0--0---------------0-1-1-1-3-6-6-5-3-5-------3-5-1-0-6-1-0--------------------

E|------------------------------------------------------------------------------------------------------------
A|------------------------------------------------------------------------------------------------------------
D|-3-3-3-0-0-0-0--------0-0-0-0-0--0-0-0-0-0-0--0-0-0-0-0-0-0-0----------------0-----------------0-----0-----0
G|---------------0-0-0-0-----------------------3-------------------3-----0-----------0-----0------------------
B|------------------------------------------------------------3-3--------------------------------------------3
E|-------5-------6-------5-5-5-5-3-------3-----1------0-1-0-0----0-1-3-5-3-1-0-1-3-5-3-3-5-6-5-3-5-3-1-0-1-0--

E|--------------------------------------
A|--------------------------------------
D|--0-0-0-0-0-0-0-0-0-0-0-0-0-0-0-0-0--0
G|--------------------------------------
B|-------------------------------------3
E|-5-5-5-6-5-3-3-3-3-5-5-5-5-6-5-3-1-0--

Composição de Rodrigo Santos
Colaboração e revisão:
  • Rodrigo Santos
1.654 exibições
    • ½ Tom
    • A
    • Bb
    • B
    • C
    • Db
    • D
    • Eb
    • E
    • F
    • F#
    • G
    • Ab
  • Adicionar à lista

    0 comentários

    Ver todos os comentários

    Conseguiu tocar?

    0 Tocaram 0 Ainda não

    Grave um vídeo tocando Piratas do Caribe e nos envie!

    00:00 / 00:00
    Outros vídeos desta música
    Repetir Qualidade Automático
    Outros vídeos desta música
    00:00 / 00:00
    Automático

    Cifra Club Pro

    Aproveite o Cifra Club com benefícios exclusivos e sem anúncios
    Cifra Club Pro
    Aproveite o Cifra Club com benefícios exclusivos e sem anúncios
    OK