Cifra Club

Me Faz de Gato e Sapato

Rogerio Ferrari

Cifra: Principal (violão e guitarra)
tom: G
(intro 2x) G D Am C G 

(solo)
E|-5h7-7-7-7-8-10-5-3-5-3-5-7-7h8-7-5-3-7h8-7-5-3-7--|
B|---------------------------------------------------|
G|---------------------------------------------------|
D|---------------------------------------------------|
A|---------------------------------------------------|
E|---------------------------------------------------|

E|-5h7-7-7-7-8-10-5-3-5-3-5-7-7h8-7-5-3-7h8-7-5-2-3--|
B|---------------------------------------------------|
G|---------------------------------------------------|
D|---------------------------------------------------|
A|---------------------------------------------------|
E|---------------------------------------------------|

            Am
Pra que te dar todo o meu amor
                         G
Se você não quer nem saber

De se arrepender
                            Am            C
Nem de cumprir com a nossa complicada relação
                 G                D
Você só sabe magoar esse meu coração
      Am
Me engana me faz de gato e sapato
           G
E eu apaixonado não consigo enxergar
                 Am               C
Mas só que dessa vez você se enganou
              G            D
Pois eu descobri um novo amor

(refrão 2x)
            G
Meu bem acabou
           D                   G
Agora é você pra lá e eu pra cá
                  D              Am
Mas tudo bem, eu fui bobo no amor
                   C
Mas encontrei de quebra um alguém
     D
Pro seu lugar

( G D Am C G ) (2x)

(solo)
E|-5h7-7-7-7-8-10-5-3-5-3-5-7-7h8-7-5-3-7h8-7-5-3-7--|
B|---------------------------------------------------|
G|---------------------------------------------------|
D|---------------------------------------------------|
A|---------------------------------------------------|
E|---------------------------------------------------|

E|-5h7-7-7-7-8-10-5-3-5-3-5-7-7h8-7-5-3-7h8-7-5-2-3--|
B|---------------------------------------------------|
G|---------------------------------------------------|
D|---------------------------------------------------|
A|---------------------------------------------------|
E|---------------------------------------------------|

(repete tudo)
Composição de Dejanir Pedro / ROGERIO FERRARI
Colaboração e revisão:
  • Tiago Kogut
104 exibições
    • ½ Tom
    • A
    • Bb
    • B
    • C
    • Db
    • D
    • Eb
    • E
    • F
    • F#
    • G
    • Ab
  • Adicionar à lista

    0 comentários

    Ver todos os comentários

    Conseguiu tocar?

    0 Tocaram 0 Ainda não

    Grave um vídeo tocando Me Faz de Gato e Sapato e nos envie!

    00:00 / 00:00
    Outros vídeos desta música
    Repetir Qualidade Automático
    Outros vídeos desta música
    00:00 / 00:00
    Automático

    Cifra Club Pro

    Aproveite o Cifra Club com benefícios exclusivos e sem anúncios
    Cifra Club Pro
    Aproveite o Cifra Club com benefícios exclusivos e sem anúncios
    OK