Cifra Club

Ser Feliz Com Você

Rogerio Ferrari

Cifra: Principal (violão e guitarra)
tom: D
(intro 2x) D A G A D A G A

(solo)
E|----------------------------------------------------3-2-0---5-3-2-0--|
B|-0-2-3-3-3-3-5-3-2-5-3-2-0---0-0-2-3-3-3-3-5-3-2-5--------3----------|
G|---------------------------2-----------------------------------------|
D|---------------------------------------------------------------------|
A|---------------------------------------------------------------------|
E|---------------------------------------------------------------------|

E|----------------------------------------------------3-2-3-2-3--------|
B|-0-2-3-3-3-3-5-3-2-5-3-2-0---0-0-2-3-3-3-3-5-3-2-5-------------------|
G|---------------------------2-----------------------------------------|
D|---------------------------------------------------------------------|
A|---------------------------------------------------------------------|
E|---------------------------------------------------------------------|

D                   A
Olho pra você e sinto
                   G
Que a paz pode reinar
                    A
Em minh'alma adormecida
D                      A
Teu cheiro guarda o sabor
                 G
Que me faz arrepiar
                     A
E o seu olhar me ilumina
G             Bm          A  Bm A
Parece que estou apaixonado
G                     Bm
Pois o cheiro dessa flor me enfeitiçou
    A        G
E agora, te amo

(refrão)
           D
Sha na na na
                         A
Não vou negar, quero te amar
                    Bm      G A
Vou me curvar pra esse amor
           D
Sha na na na
                   A
Te conheci e descobri
                       Bm
Que eu posso ser muito feliz
              G            A          D  G A
Que eu posso ser muito feliz com você

( D A G A D A G A ) (2x)

(solo)
E|----------------------------------------------------3-2-3-2-3h5--|
B|-0-2-3-3-3-3-5-3-2-5-3-2-0---0-0-2-3-3-3-3-5-3-2-5---------------|
G|---------------------------2-------------------------------------|
D|-----------------------------------------------------------------|
A|-----------------------------------------------------------------|
E|-----------------------------------------------------------------|

G             Bm          A  Bm A
Parece que estou apaixonado
G                     Bm
Pois o cheiro dessa flor me enfeitiçou
    A        G
E agora, te amo

(refrão 2x)
           D
Sha na na na
                         A
Não vou negar, quero te amar
                    Bm      G A
Vou me curvar pra esse amor
           D
Sha na na na
                   A
Te conheci e descobri
                       Bm
Que eu posso ser muito feliz
              G            A          D  G A
Que eu posso ser muito feliz com você
Composição de Claudenir Barbosa / ROGERIO FERRARI
Colaboração e revisão:
  • Tiago Kogut
134 exibições
    • ½ Tom
    • A
    • Bb
    • B
    • C
    • Db
    • D
    • Eb
    • E
    • F
    • F#
    • G
    • Ab
  • Adicionar à lista

    0 comentários

    Ver todos os comentários

    Conseguiu tocar?

    1 Tocaram 0 Ainda não

    Grave um vídeo tocando Ser Feliz Com Você e nos envie!

    00:00 / 00:00
    Outros vídeos desta música
    Repetir Qualidade Automático
    Outros vídeos desta música
    00:00 / 00:00
    Automático

    Cifra Club Pro

    Aproveite o Cifra Club com benefícios exclusivos e sem anúncios
    Cifra Club Pro
    Aproveite o Cifra Club com benefícios exclusivos e sem anúncios
    OK