Notificações Amigos pendentes

      Rosa de Saron

      Aurora

      150.806 exibições
      Tom: E
      Intro: E  E4 (3x) 
             B  B4 (3x) 
             A (riff)
      
      
      
              E   E4   E   E4   E   E4   A9    A9  A9  A9  A9
      E|--7---7----7---7----7---7----0--0---0--0---0---0------|
      B|--7---7----7---7----7---7----0--0---0--0---0---0------|
      G|--9---8----9---8----7---8----2--4---6--6---8---9------|
      D|--9---9----9---9----9---9----2--4---6--7---9---11-----|
      A|--7---7----7---7----7---7----0--0---0--0---0---0------|
      E|------------------------------------------------------|
      
      
      E E4  E E4   E E4
      Abra os seus braços
      B4  B    B4  B   B4  A9 (riff)
      Vá de encontro ao redentor.
      
      Riff:
      
      
              A9
      E|------------0--2-------|
      B|--0--0-2-4--0--0-------|
      G|--2--2-2-2--2--2-------|
      D|--2---------2--2-------|
      A|--0---------0--0-------|
      E|-----------------------|
      
      
      E E4  E E4   E E4  B4 B B4 B B4
      Deixe para trás o que ficou
           A9 (Riff)
      e busque o amor.
      
        E E4  E E4   E E4
      Basta um sorriso
          B4     B           B4        B       B4
      e o dia vence a noite, a vida vence a morte,
               A9 (Riff)
      a fé vence a dor
            (Riff)
      é so você acreditar.
      E E4  E E4   E E4  B4 B B4 B B4 A9 (Riff)
      Olhe a sua volta e terá tantas razões pra sonhar.
      C#m7/9    B9  E           A9
      Venha sentir, venha encontrar
      C#m7/9    B9  E
      Há uma força dentro de você
            A9
      Só te basta por pra fora, dizendo:
      
      Refrão:
      
      E  B9   C#m7 A
      Aleluia, Aleluia.
      E  B9    C#m7                        A9
      Aleluia, Solte sua voz, hoje é tempo de recomeçar.
      E  B9   C#m7 A
      Aleluia, Aleluia.
      E  B9    C#m7                        A9
      Aleluia, faça entoar pois Deus em nosso meio está.
      
      E E4  E E4   E E4  B4 B B4 B B4 A9 (Riff)
      Transformados pela esperança e pela fé
      E E4  E E4   E E4      B4 B B4 B B4 A9 (Riff)
      Aos quatro cantos de todo planeta iremos levar
        E E4 E E4 E E4  B4   B   B4   B    B4          A9 (Riff)
      A sua luz que iluminou a nossa vida e fez brilhar tudo aqui
         (Riff)
      Iremos te seguir
      
          E E4  E E4   E E4  B4 B B4 B B4 A9 (Riff)
      Do amor de Deus nos seremos sempre sentinelas
         A9 (Riff)
      Uma só lingua, uma só pele, uma única bandeira
      
      C#m7/9   B9  E9    A9  C#m7/9        B/D#
      Cada nação, o coração que bate aos pedaços
      E9                          A9
      quando o dia acaba e o que sobra é a aurora
      
      (Refrão)
      
      Cante:
      
      E  B9   C#m7 A
      Aleluia, Aleluia.
      E  B9    C#m7                        A9
      Aleluia, Solte sua voz, hoje é tempo de recomeçar.
      E  B9   C#m7 A
      Aleluia, Aleluia.
      E  B9    C#m7                        A9
      Aleluia, faça entoar pois Deus em nosso meio está.
      
      Solo Base: E  B  C#m  A
      
      
      E|--11b12~~---11-12-15/11~~--------------------------------~------|
      B|----------------------------16/14—14/16/14/8~~~~----------------|
      G|----------------------------------------------------------------|
      D|----------------------------------------------------------------|
      A|----------------------------------------------------------------|
      E|----------------------------------------------------------------|
      
      
      E|------------------------------------------------10-----------------|
      B|---------------------------------------------13--------------------|
      G|---10--------------------10---------------10-------14r12—10h1210~~-|
      D|-x-10h12p10-------x------10-12p1012~~--12--------------------------|
      A|-x----------12p10-x—10h12------------------------------------------|
      E|-------------------------------------------------------------------|
      
      
      E|-----------17~~~~~~---------------------------------------------|
      B|------10--------------------------------------------------------|
      G|-10-------------------------------------------------------------|
      D|----------------------------------------------------------------|
      A|----------------------------------------------------------------|
      E|----------------------------------------------------------------|
      
      
      E
      Dear God I'm here Again ... (2x)
      B9
      Dear God I'm here again (2x)
      A9
      Dear God I'm here again (2x)
      (Mais uma vez, mais uma chance para amar)
      
      E
      Dear God I'm here Again
      (Sua voz, minha voz em uma só voz,(4x)
      uma só voz eu e você)
      
      B
      Dear God I'm here Again
      (Sua voz, minha voz em uma só voz,(4x)
      uma só voz eu e você)
      
      (E  D  C#m7  C  B)
      Dear God I'm here Again
      (Mais uma Vez, mais uma chance para amar)
      (Sua voz, minha voz em uma só voz)
      
      
      (Refrão)
      
      Cante Aleluia:
      
      E  B9   C#m7 A
      Aleluia, Aleluia.
      E  B9    C#m7                        A9
      Aleluia, Solte sua voz, hoje é tempo de recomeçar.
      E  B9   C#m7 A
      Aleluia, Aleluia.
      E  B9    C#m7                        A9
      Aleluia, faça entoar pois Deus em nosso meio está.
      
      
      
      (E  B9  C#m7  A9)
      Dear God I'm here Again ...
      (Sua voz, minha voz em uma só voz,(4x) )
      
      (E  B9  C#m7  A9)
      Dear God I'm here again
      (Sua voz, minha voz em uma só voz,(4x) )
      (Mais uma vez, mais uma chance para amar)
        Composição: Guilherme de Sá, Rogério Feltrin e Eduardo FaroColaboração e revisão:
        • leon.med.7
        • David
        • Mariany
        • gutohvr
        • +3

        Comentários 33

        140 .
        • vanessa vanessa: Em 07/06/2016 17:54

          toco apenas cima baixo cima baixo lento, e depois pré-refrão e refrão: baixo cima cima baixo cima cima baixo baixo.

        • Wallace Wallace: Em 25/04/2016 09:52

          Cadê video aula cifraclub, demorando muito! Ansioso

        • emanuell.alves emanuell.alves: Em 26/12/2015 14:28

          Está errado. O começo é
          E E7+ E E7+ E E7+
          B4 B B4 B B4 B

        • emanuell.alves emanuell.alves: Em 26/12/2015 13:58

          Está errado essa parte final

        • guilherme.mendes.56679015 guilherme.mendes.56679015: Em 25/11/2015 16:29

          Video Aula Pelo Amor De Deus

        • Alex Alex: Em 17/11/2015 12:03

          video aula pelo amor de deus cifra club,videooooooooooooooooo aulaaaaaaaaaaaaaaaaaaaaaaaa

        • Gabriel Gabriel: Em 08/09/2015 23:56

          video aula completa, por favor!?!

        • André Luis André Luis: Em 27/08/2015 11:09

          Deus abençoe aquele que fizer uma vídeo aula dessa música!! Amém!!

        • Daniel Daniel: Em 03/07/2015 11:23

          video aula

        • Gizelle Gizelle: Em 24/06/2015 16:11

          Vídeo aula por favor!!!! estão todos pedindo pls

        140 cancelar

        conseguiu tocar?

        • •••
        jonatas Alves1.040 visualizações
          ver covers de outras músicas »
          0:00 / 0:00

          Capítulos

            1 versão de Guitar Proformatodownloadscontribuição
            play/pausefechar subir/descer velocidade
            6ª corda E5ª corda A4ª corda D3ª corda G2ª corda B1ª corda E
              acordes
              publicidade
              fechar
              ok