Enviar cifraEntrar

Do Alto da Pedra

Rosa de Saron

Cifra: Principal
exibições 971.515
Tom: E
E


  C#9                    A9           C#9                    A9
E|-----------------------|------------|-----------------------|---------------|
B|---4-----4---4h5p4-----|-------0----|--4-----4-----4h5p4----|-------0----0--|
G|-----6----6---------6--|-----2---2--|----6-----6---------6--|-----2---2--2--|
D|-------6----6---------6|---2-------2|------6-----6---------6|---2--------2--|
A|-4---------------------|-0----------|-4---------------------|-0----------0--|
e|-----------------------|------------|-----------------------|---------------|


 ( B5  C#5  A5 ) 2 Vezes

E                 A9
 Encontro e sinto
                      C#m7
Você é tudo o que sonhei
                   A9
Não posso me conter
                          E
E mais que tudo eu quero ir
                               A9
Uma vez que faz-me sentir alguém
                 C#m7
É pra todo sempre
                 A9         B4             E/G#  E/A  E/G#  E/A
Não quero minha vida igual a tudo que se vê...

      E                           
      Em você eu se me sinto forte
      A9
R      Com você não temo minha sorte
e      C#m          A9              E     F#m   G#m
f      E eu sei que isso veio de você
r
ã      E                           
o      Em você eu se me sinto forte
      A9
      Com você não temo minha sorte
      C#m           A9              E     F#m   G#m A9
       E eu sei que isso veio de você

E               A9                        C#m7
Do alto da pedra eu busco impulso pra saltar
                    A9                                                      
mais alto que antes , e mais que tudo eu quero ir
E                      A9                        C#m                         
Uma vez que faz-me sentir alguem é pra todo sempre
                    A9                 E/G#    E/A    E/G#    E/A
Não quero minha vida igual a tudo que se vê

      E                           
      Em você eu se me sinto forte
      A9
R      Com você não temo minha sorte
e      C#m          A9              E     F#m   G#m
f      E eu sei que isso veio de você
r
ã      E                           
o      Em você eu se me sinto forte
      A9
      Com você não temo minha sorte
      C#m           A9              E     F#m   G#m A9
       E eu sei que isso veio de você

OBS.: COLOQUEI NO FINAL DO SOLO DOIS MODOS DE FAZÊ-LO, EU PARTICULARMENTE
      FAÇO O PRIMEIRO QUE É EM "DOUBLES STOPS" MODO 01, PORÉM O ORIGINAL
      DA MUSICA É O MODO 02, AÍ VAI DE SUA ESCOLHA.

TRANSCRIÇÃO: LEANDRO PIRES
b = BEND
r = RELEASE
h = HAMMER-ON
p = PULL-OFF
/ = SLIDE
~ = VIBRATO
^ = HARMÔNICO ARTIFICIAL (só pra lembrar, o harmônico se faz soltando de
                         leve o dedo no traste a frente da casa indicada)


   E                 A9                 C#m  A9            E  F#m D9 E
E|-14b16-14b16r14p12-14------------------9-9-14-12-11-12-------------19^-----|
B|----------------------12b14r12------9-12---------------14-12~~~~------17-16|
G|-------------------------------9/11----------------------------------------|
D|---------------------------------------------------------------------------|
A|---------------------------------------------------------------------------|
e|---------------------------------------------------------------------------|


                                     A9                        C#m
E|-------------19^-------------------19^-----------------------11----11------|
B|-17-16-17--------17-16-17-16-17-16-----17-16-17-16-----------14b16-14b16---|
G|---------------------------------------------------16-18~~~~---------------|
D|---------------------------------------------------------------------------|
A|---------------------------------------------------------------------------|
e|---------------------------------------------------------------------------|


      A5          E              F#m         G#m         A
E|-11----11----11----11----------14b16r14-12-11-14p12p11h12h14p12p11/9-------|
B|-14b16-14b16-14b16-14b16r14p12---------------------------------------9-----|
G|---------------------------------------------------------------------------|
D|---------------------------------------------------------------------------|
A|---------------------------------------------------------------------------|
e|---------------------------------------------------------------------------|


Modo 01 (mais massa)

   A5                                                         E5
E|-11----12----14-----------------------------------------------|
B|-14b16-15b17-17b19-17-16-17-----------------------------------|
G|----------------------------7----9-----10----12-12b14r12-10-12|
D|----------------------------9b11-11b13-12b14------------------|
A|--------------------------------------------------------------|
e|--------------------------------------------------------------|


Modo 02 (mais fácil, original da musica)

   A5                                      E5
E|-11-12-14-12-11-12-------------------------|
B|------------------/7-9-10-12-12b14r12-10-12|
G|-------------------------------------------|
D|-------------------------------------------|
A|-------------------------------------------|
e|-------------------------------------------|


      E                           
      Em você eu se me sinto forte
      A9
R      Com você não temo minha sorte
e      C#m          A9              E     F#m   G#m
f      E eu sei que isso veio de você
r
ã      E                           
o      Em você eu se me sinto forte
      A9
      Com você não temo minha sorte
      C#m           A9              E     F#m   G#m A9
       E eu sei que isso veio de você

( B5  C#5  A5 ) (2x)
  • 1
  • 2
  • 3
  • 4
  • 5
  • 6
  • 7
  • 8
  • 9
  • 10
  • 11
  • 12
    Acordes para:
      Composição: Guilherme de SáColaboração e revisão:
      • mandacaru
      • vando

      0 comentários

        mostrar mais comentários

        Conseguiu tocar?

        66tocaram0ainda não

        Grave um vídeo tocando Do Alto da Pedra e mande pra gente!

        00:00 / 00:00
        outros vídeos desta música
        repetirqualidadeautomática
        • automática
        Outro vídeos desta música
          Capítulos
          • Início
          • Acordes da introdução (Dedilhado)
          • Tocando dedilhado da introdução
          • Tocando dedilhado da introdução devagar
          • Explicando dedilhado da introdução
          • Acordes da segunda parte da introdução
          • Tocando a segunda parte da introdução
          • Explicando ritmo da introdução
          • Passagem do ritmo na primeira parte
          • Acordes da primeira parte
          • Tocando a primeira parte
          • Acordes do pré-refrão
          • Tocando o pré-refrão
          • Explicando o pré-refrão
          • Tocando o pré-refrão devagar
          • Acordes do refrão
          • Tocando o refrão
          • Passagem do refrão
          • Acordes da base do solo
          • Tocando a base do solo
          • Encerramento
          00:00 / 00:00
          automática
          • automática
          fecharplay/pause subir/descer velocidade
            acordes
            fechar
            OK
            Feedback