Notificações Amigos pendentes

      Rosa de Saron

      Mesma Brisa

      44.524 exibições
      Tom: A#
      Afinação: Drop D (D A D G B E)
      
      Intro:
      
      E|-11----11----10----10----|---8---8---6---6-----|
      B|----13----13----13----13-|---------------------|
      G|-------------------------|-----8---8---8---8---|
      D|-------------------------|---------------------|
      A|-------------------------|---------------------|
      D|-------------------------|---------------------|
      
      
      (esse riff acompanha a música toda, exceto no refrão)
      
      Parte 1:
      
      A noite eu fico em claro
      Com os meus sonhos apagados
      E vejo que não há caminho aqui
      
      C5
      Esqueci a minha história
      
      Fui perdendo minhas memórias
          G#5                         F5
      Sem dar valor por tudo belo que vivi
      
      G#5
      Pois cada um tem seu lugar,
               F5
      Seja na terra ou no mar
      G#5                                F5
      Não vou deixar a minha vida se apagar
      
      Refrão:
      
      C5        G#5     D#5         F5
      Na mesma brisa, no mesmo lugar
      C5        G#5       F5        D#5         C5  G#5
      Olho nos olhos, por Ti eu me jogo ao mar
          F5         D#5
      Por Ti eu me jogo ao mar
      
      Parte 2:
      
      
      E|-11----11----10----10----|---8---8---6---6-----|
      B|----13----13----13----13-|---------------------|
      G|-------------------------|-----8---8---8---8---|  [2x]
      D|-------------------------|---------------------|
      A|-------------------------|---------------------|
      D|-------------------------|---------------------|
      
      
      C5                 Bb5
      Meus medos estão claros
         G#5         F5
      E deles fui escravo
      C5            Bb5          G#5   (D#5 F5)
      Perdido sem saber como seguir
      
      C5                Bb5
      Na vida tudo é frágil,
      G#5          F5
      Preciso ver Você aqui
      C5                 Bb5            G#5      F5
      Vivendo os mesmo sonhos pra me fazer feliz
      
      G#5
      Pois cada um tem seu lugar,
               F5
      Seja na terra ou no mar
      G#5                                F5
      Não vou deixar a minha vida se apagar
      
      Refrão:
      
      C5        G#5     D#5         F5
      Na mesma brisa, no mesmo lugar
      C5        G#5       F5        D#5         C5  G#5
      Olho nos olhos, por Ti eu me jogo ao mar
          F5         D#5        C5  G#5
      Por Ti eu me jogo ao mar
          F5               D#5
      Por Ti eu me jogo ao mar
      
      Parte 3:
      
      (G#5  Bb5)
      
      D#5 F5                                 G#5
        Por mais que me afaste do longe horizonte
             Bb5            D#5 F5
      Me reencontro nas mesmas águas
      
      Solo:
      
      (o solo tem o efeito de pedaleira Wah-Wah)
      
      
          C5                  G#5          D#5                   F5
      E|-11b13r11b13~--11---------------------------------------------|
      B|------------------16-13~--11-13-15b16r15b16~-r15--13----------|
      G|------------------------------------------------------15-12~--|
      D|--------------------------------------------------------------|
      A|--------------------------------------------------------------|
      D|--------------------------------------------------------------|
      
      
             C5
      E|--------------------------------------------------------------|
      B|-15-15b16r15-13----13-15-15b16r15-13----13-15-15b16r15-15-----|
      G|----------------12-------------------12-------------------12--|
      D|--------------------------------------------------------------|
      A|--------------------------------------------------------------|
      D|--------------------------------------------------------------|
      
      
          G#5
      E|--------------------------------------------------------------|
      B|-15b16r15-13----13-15-15b16r15-13----13-15-15b16r15-15--------|
      G|-------------12-------------------12-------------------12-----|
      D|--------------------------------------------------------------|
      A|--------------------------------------------------------------|
      D|--------------------------------------------------------------|
      
      
          F5          D#5
      E|-13~-11~-----------------------|
      B|---------15-13h15-13-11-11/13--|
      G|-------------------------------|
      D|-------------------------------|
      A|-------------------------------|
      D|-------------------------------|
      
      
                C5                                     G#5
            E|-18-p10h11-18-p10h11-18-p8h10--15-p8h10-13-p8h10-13-p8h10-11-----|
            B|-------------------------------------------------------------8~--|
            G|-----------------------------------------------------------------|
            D|-----------------------------------------------------------------|
            A|-----------------------------------------------------------------|
            D|-----------------------------------------------------------------|
      
      Tapping   .         .         .         .        .        .
      
      
           F5                         D#5
      E|--------------------------------------------------------------|
      B|--11b13~---13b15~---15b16~---16b18~---18b20--r18--16----------|
      G|------------------------------------------------------17\-----|
      D|--------------------------------------------------------------|
      A|--------------------------------------------------------------|
      D|--------------------------------------------------------------|
      
      
      
      Na mesma brisa, no mesmo lugar
      Olho nos olhos, por Ti eu me jogo ao mar
      
      Refrão:
      
      C5        G#5     D#5         F5
      Na mesma brisa, no mesmo lugar
      C5        G#5       F5        D#5         C5  G#5
      Olho nos olhos, por Ti eu me jogo ao mar
          F5         D#5        C5   G#5
      Por Ti eu me jogo ao mar
          F5         D#5        C5   G#5
      Por Ti eu me jogo ao mar
          F5         D#5
      Por Ti eu me jogo ao mar
      
      Final:
      
      ( C5 F5 C5 F5 )
      
        Composição: Eduardo Faro / Guilherme De SáColaboração e revisão:
        • raphy
        • mateus
        • Ivanzinho

        Comentários 2

        140 .
        • jason13 jason13: Em 10/01/2012 12:49

          Show de bola essa musica

        • jv1996 jv1996: Em 20/11/2011 17:21

          BOa d++++

        140 cancelar

        conseguiu tocar?

        covers

        Grave um vídeo tocando Mesma Brisa e mande pra gente!

        Ex.: http://www.youtube.com/watch?v=0IvSvIwGdwk
        ver covers de outras músicas »
        0:00 / 0:00

        Capítulos

          2 versões de violão dificuldade exibições contribuição e correção
          2 versões de guitarra dificuldade exibições contribuição e correção
          2 versões de cavaco dificuldade exibições contribuição e correção
          2 versões de teclado dificuldade exibições contribuição e correção
          1 versão de Guitar Proformatodownloadscontribuição
          play/pausefechar subir/descer velocidade
          6ª corda E5ª corda A4ª corda D3ª corda G2ª corda B1ª corda E
            acordes
            publicidade
            fechar
            ok