Cifra Club

Muitos Choram

Rosa de Saron

Cifra: Principal
exibições 374.137
Tom: C
[Intro] Am  C Em
        Am  C Em

Am
O vento bate na janela e eu busco asas pra voar
F                    G
Pra bem mais perto de você
F                G
Bem mais perto de você
Am                                         C9
Estamos livres, mas sozinhos, abandonados
F                      G          F                     G
Por quem tinha que nos entender, por quem tinha que nos defender

C9   G          Dm   Am
Hoje muitos choram, mas não desistem de viver
C9   G           Dm  Am
Hoje muitos choram sorrindo
C9   G          Dm   Am
Hoje muitos choram, mas não desistem de viver
C9   G           Dm  Am
Hoje muitos choram sorrindo

Am
A vida passa como um rio e não é mais tudo tão lindo
F                E9
Nos resta apenas confiar em Deus
F                G
Nos resta apenas confiar
Am                                                  C9
São só palavras e promessas dissimuladas sem noção
F                                G
Que muitas vidas correm em suas mãos
F                                G
Que muitas vidas correm em suas mãos

C9       G           F
Hoje muitos choram, mas não desistem de viver
C9       G           F  G
Hoje muitos choram sorrindo
C9       G          F
Hoje muitos choram, mas não desistem de viver
C9       G           F  C    F9  C  F
Hoje muitos choram sorrindo

C9                      F
Hoje muitos choram
C9                      F  G
Hoje muitos choram sorrindo

E|--9------------------------------------|
B|-----9---------------------------------|
G|----------11----10------------10-------|
D|-----------------------13----------11--|
A|---------------------------------------|
E|---------------------------------------|


E|--9--------8---------9-----------------|
B|-----9---------------------------------|
G|---------------------------------------|
D|---------------------------------------|
A|---------------------------------------|
E|---------------------------------------|


E|--9------------------------------------|
B|-----9---------------------------------|
G|--------11----10----10--------9/11--9--|
D|-----------------13----11--------------|
A|---------------------------------------|
E|---------------------------------------|
Acordes para:

    0 comentários

      mostrar mais comentários

      Conseguiu tocar?

      31tocaram0ainda não

      Grave um vídeo tocando Muitos Choram e mande pra gente!

      00:00 / 00:00
      outros vídeos desta música
      repetirqualidadeautomática
      Outro vídeos desta música
        00:00 / 00:00
        automática
        OK