Notificações Amigos pendentes

      Rosa de Saron

      Muitos Choram

      362.516 exibições
      Tom: C
      Intro 2x: Am  C Em
      
      Am
      O vento bate na janela e eu busco asas pra voar
      F                                G
      Pra bem mais perto de você
      F                                G
      Bem mais perto de você
      Am                                            C9
      Estamos livres, mas sozinhos, abandonados
      F                                                   G          F                                                 G
      Por quem tinha que nos entender, por quem tinha que nos defender
      
      C9   G          Dm   Am
      Hoje muitos choram, mas não desistem de viver
      C9   G           Dm  Am
      Hoje muitos choram sorrindo
      C9   G          Dm   Am
      Hoje muitos choram, mas não desistem de viver
      C9   G           Dm  Am
      Hoje muitos choram sorrindo
      
      Am
      A vida passa como um rio e não é mais tudo tão lindo
      F                             E9
      Nos resta apenas confiar em Deus
      F                    G
      Nos resta apenas confiar
      Am                                           C9
      São só palavras e promessas dissimuladas sem noção
      F                                G
      Que muitas vidas correm em suas mãos
      F                                G
      Que muitas vidas correm em suas mãos
      
      C9       G           F
      Hoje muitos choram, mas não desistem de viver
      C9       G           F  G
      Hoje muitos choram sorrindo
      C9       G          F
      Hoje muitos choram, mas não desistem de viver
      C9       G           F  C  F9  C  F
      Hoje muitos choram sorrindo
      
      C9                      F
      Hoje muitos choram
      C9                      F  G
      Hoje muitos choram sorrindo
      
      E|--9------------------------------------|
      B|-----9---------------------------------|
      G|----------11----10------------10-------|
      D|-----------------------13----------11--|
      A|---------------------------------------|
      E|---------------------------------------|
      
      
      E|--9--------8---------9-----------------|
      B|-----9---------------------------------|
      G|---------------------------------------|
      D|---------------------------------------|
      A|---------------------------------------|
      E|---------------------------------------|
      
      
      E|--9------------------------------------|
      B|-----9---------------------------------|
      G|--------11----10----10--------9/11--9--|
      D|-----------------13----11--------------|
      A|---------------------------------------|
      E|---------------------------------------|
      
        Composição: Eduardo FaroColaboração e revisão:
        • danibiase
        • collina
        • jelcarvalholima
        • H.Junior
        • +5

        Comentários 14

        140 .
        • Guýlherme Guýlherme: Em 04/07/2015 00:21

          www e chords . com chords rosa de saron muitos choram

          nesse site tem o solo acustico obs:no lugar de espaço é (-) hífen

        • Guýlherme Guýlherme: Em 04/07/2015 00:07


          (solo)
          E |----------------10----8-7------------------8------------------------
          B |--5h6p5--5h6~/8-----------8-5-------3h5-6----6--8-----8

        • Guýlherme Guýlherme: Em 04/07/2015 00:05

          (solo)
          E |----------------10----8-7------------------8------------------------
          B |--5h6p5--5h6~/8-----------8-5-------3h5-6----6--8-----8-

        • willson willson: Em 28/05/2014 13:14

          Na verdade o tom que ta na música do video é B.

        • Douglas Douglas: Em 27/05/2014 09:20

          qual a batida dessa musica ?

        • douglas.batista douglas.batista: Em 12/05/2014 15:04

          ok agr desce todos os acordes meio tom e fica certin (y)

        • Lucas Lucas: Em 23/04/2014 23:16

          Video aula, da versão acustica ai por favor

        • Vitor Vitor: Em 02/02/2014 21:16

          Vídeo aula!

        • Lucas Lucas: Em 11/11/2013 19:05

          o tempo ta errado

        • jeanzzito jeanzzito: Em 07/11/2012 16:10

          Cara queria muito a vídeo aula dessa musica .

        140 cancelar

        conseguiu tocar?

        • •••
        mateus dos santos matos1.406 visualizações
          ver covers de outras músicas »
          0:00 / 0:00

          Capítulos

            3 versões de Guitar Proformatodownloadscontribuição
            play/pausefechar subir/descer velocidade
            6ª corda E5ª corda A4ª corda D3ª corda G2ª corda B1ª corda E
              acordes
              publicidade
              fechar
              ok