Cifra Club

Parusia

Rosa de Saron

Cifra: Principal
exibições 94.307
Tom: E
Intro:  E  F#m A9 E

Solo:

E|------------------------------------------------------|
B|-12---12---12---12---12---12---12---12----------------|
G|----9----9----9----9----9----9----9----9--------------|
D|------------------------------------------------------|
A|------------------------------------------------------|
E|------------------------------------------------------|

E|------------------------------------------------------|
B|-14---14----14----14----14----14----14----14----------|
G|----11----11----11----11----11----11----11----11------|
D|------------------------------------------------------|
A|------------------------------------------------------|
E|------------------------------------------------------|

E|------------------------------------------------------|
B|-12---12---12---12---12---12---12---12----------------|
G|----9----9----9----9----9----9----9----9--------------|
D|------------------------------------------------------|
A|------------------------------------------------------|
E|------------------------------------------------------|

E|------------------------------------------------------|
B|--9----9----9----9----9----9----9----9----------------|
G|----9----9----9----9----9----9----9----9--------------|
D|------------------------------------------------------|
A|------------------------------------------------------|
E|------------------------------------------------------|

É importante que você ouça a musica, 
para saber quando o solo esta presente e quando para.

E                    F#/C#
O seu amor, o nosso amor me faz pensar
       A9                    F#m             A9
É tão fácil lembrar, com a memória é muito simples
E                      F#/C#
Difícil é esquecer quando se tem amor
A9                    f#m       A9
E você tornou-se impossível de se esquecer

E        A9            C#m         A9
Há tempo que ficou pra trás todo silêncio e solidão
E          A9        C#m           A9         B7
Se o tempo foi, você ficou junto de mim a me aquecer
E         A9        C#m7             A9
Há tempo que o frio passou, ficou o calor da tua luz
E           A9       C#5              A9          E
Se o tempo foi, você marcou presença onde não há valor

passagem:base,junto com solo da introdução
os acordes da base são os mesmo da introdução (E  F#m A9 E)

E                   F#/C#
Tal qual estou a esperar a sua volta
      A9                  F#m         A9
São joelhos calejados que tocam o precioso chão
E
Fazer o quê? Eu não sei o que fazer
F#/C#
Ainda assim só há alegria porque sei
     A9
Sua volta é iminente
    F#m         A9
Ansioso espero por você

E         A9            C#m         A9
Há tempo que ficou pra trás todo silêncio, e solidão
E           A9       C#m            A9        B7
Se o tempo foi você ficou junto de mim a me aquecer
E        A9           C#m            A9
Há tempo que o frio passou, ficou o calor da sua luz
E         A9         C#m          A9            E
Se o tempo foi você marcou presença onde não há valor

      F#m
A esperança viva está
   B5                   A9   E
Minha mente só me traz você

passagem:(B A E)2X
        B
A esperança viva está
A9
Minha mente só me traz você

passagem:(E F#m C#5  D9 A9 B C#5 A)2X


E eu sei porque não há solidão
   
Eu sei porque não há solidão
  
Eu sei porque não há solidão
  
Eu sei porque não há solidão
 
Eu sei porque não há solidão
   
Eu sei porque não há solidão
   
Eu sei porque não há solidão
   
Eu sei porque não há solidão
Acordes para:

    0 comentários

      mostrar mais comentários

      Conseguiu tocar?

      9tocaram0ainda não

      Grave um vídeo tocando Parusia e mande pra gente!

      00:00 / 00:00
      outros vídeos desta música
      repetirqualidadeautomática
      Outro vídeos desta música
        00:00 / 00:00
        automática
        OK