Enviar cifraEntrar

Rara Calma

Rosa de Saron

Cifra: Principal
exibições 432.607
Tom: C
[Intro]  C9  F/E  F  F/E

C9                     F/E
O tempo voou nem percebi
                        F
Mas sou o mesmo homem que
    F/E           C9
Um dia você conheceu
                  F/E
A canção, não esqueci
                F
O menino que há em mim
    F/E
Nasceu pra cantar
  F         G           Am          G/B            C9
Chora como nunca ao sentir ainda estamos juntos aqui

            G/B
Abro o coração
                    Am
Coloco-me aos seus pés
               F         C9
Noite escura agora é manhã
                 G/B
E falo com rara calma
                     Am            F
Sou o que sou, sei que sou fraco, mas sempre
 F/E            F        G
Tive você aqui perto de mim

C9                           F/E
O espelho me diz que envelheci
                 F
E que mal pode existir
    F/E                  C9
Em ter histórias pra contar

                     F/E
Dos amigos que aqui fiz
                 F
Quanta coisa se passou
F/E      F     G        C9
Ainda estamos juntos aqui

            G/B
Abro o coração
                    Am
Coloco-me aos seus pés
               F         C9
Noite escura agora é manhã
                 G/B
E falo com rara calma
                     Am                F
Sou o que sou, sei que sou fraco, mas sempre
 F/E         F           G
Tive você aqui perto de mim

[Solo]  C9  F/E  F  F/E


E|-----------------------------4-----------4--4h6----4h6p4-------------------------------|
B|---------------2h4--4/6-------4h6--------------------------6--4--2--2h4--4h6p4--2------|
G|----------1h3--------------------------------------------------------------------------|
D|----1h3--------------------------------------------------------------------------------|
A|---------------------------------------------------------------------------------------|
E|---------------------------------------------------------------------------------------|


E|---------1--1h3-1-------------------------|
B|---2h4----------------------2h4-2---------|
G|-------------------------1h3--------------|
D|------------------------------------------|
A|------------------------------------------|
E|------------------------------------------|


E|--------4--4--2--2--1--1h2p1-------11--9-9-9--8h9p8---------------------------------|
B|-----2------------------------------4-----------------------------------------------|
G|---------------------------------------------------------------------10--11---------|
D|------------------------------------------------------------------------------------|
A|------------------------------------------------------------------------------------|
E|------------------------------------------------------------------------------------|


C9                 G/B
Então eu abro o coração
                    Am
Coloco-me aos seus pés
               F         C9
Noite escura agora é manhã
                 G/B
E falo com rara calma
                     Am            F
Sou o que sou, sei que sou fraco, mas sempre
 F/E         F  G        C9
Tive você aqui perto de mim

C9  F/E  F  F/E
  • 1
  • 2
  • 3
  • 4
  • 5
  • 6
  • 7
  • 8
  • 9
  • 10
  • 11
  • 12
    Acordes para:

      0 comentários

        mostrar mais comentários

        Conseguiu tocar?

        35tocaram0ainda não

        Grave um vídeo tocando Rara Calma e mande pra gente!

        00:00 / 00:00
        outros vídeos desta música
        repetirqualidadeautomática
        • automática
        Outro vídeos desta música
          00:00 / 00:00
          automática
          • automática
          fecharplay/pause subir/descer velocidade
            Acordes para:violão e guitarra
            acordes
            fechar
            OK