Cifra Club

Sem Você

Rosa de Saron

Cifra: Principal (violão e guitarra)
tom: Ebm (forma dos acordes no tom de Em) Afinação: Eb Ab Db Gb Bb Eb
[Intro] Am7  C9  G/B  Am7  G
        C9  G/B  Am7  D  
        Am7  C9  G  Cm7M  C9

[Tab - Solo Intro]
 
Parte 1 de 3  
E|----8----7------5---3---2p0---------------|
B|------------------------------------------|
G|--9----7----3/5---4-----------------------|
D|------------------------------------------|
A|------------------------------------------|
E|------------------------------------------|

Parte 2 de 3
E|----------------------------------3-------|
B|-----5-----3------1-0--1--3/5-3---3-------|
G|------------------------------------------|
D|-4/5---2/4----4/2-------------------------|
A|------------------------------------------|
E|------------------------------------------|

Parte 3 de 3
   H.N. .  .   .
E|------12----------------------------------|
B|----7----12-------------------------------|
G|-5-----------12---------------------------|
D|------------------------------------------|
A|------------------------------------------|
E|------------------------------------------|

[Primeira Parte]

G                       D/F# 
  Minha vida, minha história
C9            Em7  D9/F#                 G
   Só fez sentido        quando te conheci
           D/F#  
Seus olhos,     sua face
C9                Em        D
   Me levam além do que pensei

[Segunda Parte]

Em7        D          Em7             C9
    Se às vezes me escondo em você me acho
         Em7      D/F#
Nem dá pra disfarçar
Em7                              C9
   Preciso dizer você faz muita falta
        Em7     D/F#  Am7
Não há como explicar

[Refrão]

G            D/F#                Em7
  Foi sem você que eu pude entender
        G/B  C9          Am7    G       
Que não é   fácil viver sem te ter
         D/F#           Em7
Meu coração me diz que não
    G/B  D/F#  C9         G/B  Am7  
Eu não  con___sigo viver sem  você
     Cm7M
Sem você

[Solo] Am7  C9  G/B  Am7  G
       C9  G/B  Am7  D  
       Am7  C9  G  Cm7M  C9

[Tab - Solo]

Parte 1 de 3  
E|-------8----7------5---3---2p0------------|
B|------------------------------------------|
G|-5/7/9----7----3/5---4--------------------|
D|------------------------------------------|
A|------------------------------------------|
E|------------------------------------------|

Parte 2 de 3
E|----------------------------------3-------|
B|-----5-----3------1-0--1--3/5-3---3-------|
G|------------------------------------------|
D|-4/5---2/4----4/2-------------------------|
A|------------------------------------------|
E|------------------------------------------|

Parte 3 de 3
   H.N. .  .   .
E|------12----------------------------------|
B|----7----12-------------------------------|
G|-5-----------12---------------------------|
D|------------------------------------------|
A|------------------------------------------|
E|------------------------------------------|

[Primeira Parte]

G                       D/F#  
  Minha vida, minha história
C9            Em7  D9/F#                 G
   Só fez sentido        quando te conheci
           D/F#  
Seus olhos,     sua sagrada face
C9                Em        D
   Me levam além do que pensei

[Segunda Parte]

Em7        D          Em7             C9
    Se às vezes me escondo em você me acho
         Em7      D/F#
Nem dá pra disfarçar
Em7                              C9
   Preciso dizer você faz muita falta
        Em7     D/F#  Am7
Não há como explicar

[Refrão]

G            D/F#                Em7
  Foi sem você que eu pude entender
        G/B  C9          Am7    G       
Que não é   fácil viver sem te ter
         D/F#           Em7
Meu coração me diz que não
    G/B  D/F#  C9         G/B  Am7  
Eu não  con___sigo viver sem  você
     Cm7M
Sem você

G  D/F#        Em7  G/B  C9
  Nunca sem você
G         D/F#        Em7  G/B
  Meu Senhor, meu Senhor
C9
Eu não sou nada 
Am7      G  Cm7M      G9
    Sem vo_cê, sem você
00:00 / 00:00
Outros vídeos desta música
Repetir
Outros vídeos desta música
Composição de Guilherme De Sá
2.950.812 exibições
  • Simplificar cifra
    • ½ Tom
    • Am
    • Bbm
    • Bm
    • Cm
    • C#m
    • Dm
    • Ebm
    • Em
    • Fm
    • F#m
    • Gm
    • G#m
  • Adicionar à lista

    0 comentários

    Ver todos os comentários

    Entre para oCifra Club PRO

    Tenha acesso a benefícios exclusivos no App e no Site

    • Chega de anúncios

    • Prioridade de compra em lançamentos

    • Mais recursos no app do Afinador

    • Atendimento Prioritário

    • Descontos nos produtos Cifra Club

    • Ajude a produzir mais conteúdo

    00:00 / 00:00

    Cifra Club Pro

    Aproveite o Cifra Club com benefícios exclusivos e sem anúncios
    Cifra Club Pro
    Aproveite o Cifra Club com benefícios exclusivos e sem anúncios
    OK