Cifra Club

Última Lágrima

Rosa de Saron

Cifra: Principal
exibições 105.618
Tom: G
Intro: Em C G Am

E|------------------------------------------------------------------------------------------------
B|7h8p7-----7h8p7------7h8p7----------------------------------------------------------------------
G|-----7---------7-------------7-7h9p7---------7h9p7---------------------9-7-7--------------------
D|-------9---------9--------------------9-------------9-----------9h10-9---------9-9h10-9---------
A|----------------------------------------10------------10-10/12--------------------------10-10/12
E|------------------------------------------------------------------------------------------------

Em                   C
Hoje me sinto tão disperso
                 G                  Am
Por não saber ao certo a medida da razão
  Em                    C
E peço com o coração confesso
                G                 D
Que ouça minha alma e todo meu clamor

    C                   G                  C
Mas nada pode me fazer mudar, selar a minha voz
                       Am
Eu tenho mil razões sinceras
                   C
Não quero te esquecer

    G           Dm                Am
Não vou me entregar até a última lágrima restar
      C
Até a última lágrima
    G           Dm                Am
Não vou me entregar até a última lágrima restar
      C
Até a última lágrima


Intro: Em C G Am

E|--------------------------------------------------------------------------------------------------------10-7-
B|--7h8p7-----7h8p7------7h8p7---------------------------------------------------------------------------8-----
G|-------7---------7-------------7-7h9p7---------7h9p7---------------------9-7-7---------------------7h9-------
D|---------9---------9--------------------9-------------9-----------9h10-9---------9-9h10-9--------------------
A|------------------------------------------10------------10-10/12--------------------------10-10/12-----------
E|-------------------------------------------------------------------------------------------------------------

Em                   C
Hoje me sinto tão disperso
                 G                  Am
Por não saber ao certo a medida da razão
  Em                    C
E peço com o coração confesso
                G                 Am
Que ouça minha alma e todo meu clamor

    C                   G                  C
Mas nada pode me fazer mudar, selar a minha voz
                       Am
Eu tenho mil razões sinceras
                   C
Não quero te esquecer

    G           Dm                Am
Não vou me entregar até a última lágrima restar
      C
Até a última lágrima
    G           Dm                Am
Não vou me entregar até a última lágrima restar
      C
Até a última lágrima

Solo: G Dm Am C (2X)
Acordes para:
    Colaboração e revisão:

    0 comentários

      mostrar mais comentários

      Conseguiu tocar?

      47tocaram0ainda não

      Grave um vídeo tocando Última Lágrima e mande pra gente!

      00:00 / 00:00
      outros vídeos desta música
      repetirqualidadeautomática
      Outro vídeos desta música
        00:00 / 00:00
        automática
        OK