Cifra Club

O Inferno Vai Ter Que Esperar

Rosa Tattooada

Cifra: Principal (violão e guitarra)
tom: Db
C#
Ele sentiu que algo escapou
       Bbm
Soube que sua garota se foi
       Ab
E com ela alguém
                      F#      Ab    C#
E o tempo passou com raiva e solidão
C#
E então numa noite, numa rua qualquer
     Bbm
Ele viu sua garota através da vitrine
       Ab
E com ela alguém, uh
       F#          (F# F) Ebm
E com ela alguém
                       Bbm
Sentiu suas pernas como blocos de pedra
     Ab           F#
E o coração esmagando o seu peito
      Ab                 Bbm
Caminhou até lá com uma arma na mão
      Ab                    F#        C#
Em frente aos dois com uma arma na mão

   (solo) C# Ab Bbm Ab C# Ab Bbm F# C#
E|-----------------------------------------------------------------------------------|
B|-----------------------------------------------------------------------------------|
G|-8^--8^--8---8^---6--5--6--5-------------------------------------------------------|
D|------------------------------6/8--8--6~~--------6p8--8--6--8--6--8--6--8--6--8--6-|
A|------------------------------------------6p8--------------------------------------|
E|-----------------------------------------------------------------------------------|

E|-----------------------------------------------------------------------------|
B|-----9-----------------------------------------------------------------------|
G|-8^-----8^--6~~----8--6--5------6--5---------8--6--5--5--6--5--8--6--5--6--5-|
D|----------------------------8---------8--6-----------------------------------|
A|-----------------------------------------------------------------------------|
E|-----------------------------------------------------------------------------|

E|------------------------------------------------------------------------------|
B|---------------------------------------------------------------------9--------|
G|--3--5--3--1----1------------------------------------------------8^------8^--6|
D|--------------3---3-1--3--1----1---------1--------6-8-8--6-8-6----------------|
A|-----------------------------3----3--1---0---6-8------------------------------|
E|------------------------------------------------------------------------------|

C#
Sorriu e disse adeus
       Ab
Ele sabia o que fazer
       Bbm
Mas sabia tambem
            Ab
Que não nasceu pra matar

(refrão 2x)
        C#
Nem um tiro nem uma gota de sangue
     Ab
O inferno vai ter que esperar
    Bbm
Sorriu e disse adeus
 F#                             C#
O inferno vai ter que esperar

(solo)
00:00 / 00:00
Outros vídeos desta música
Repetir
Outros vídeos desta música
Composição de Beat Barea / Eduardo Rod / Jacques Maciel / Paulo Cássio / Thedy Corrêa
Colaboração e revisão:
114.124 exibições
    • ½ Tom
    • A
    • Bb
    • B
    • C
    • Db
    • D
    • Eb
    • E
    • F
    • F#
    • G
    • Ab
  • Adicionar à lista

    0 comentários

    Ver todos os comentários

    Entre para oCifra Club PRO

    Tenha acesso a benefícios exclusivos no App e no Site

    • Chega de anúncios

    • Prioridade de compra em lançamentos

    • Mais recursos no app do Afinador

    • Atendimento Prioritário

    • Descontos nos produtos Cifra Club

    • Ajude a produzir mais conteúdo

    00:00 / 00:00

    Cifra Club Pro

    Aproveite o Cifra Club com benefícios exclusivos e sem anúncios
    Cifra Club Pro
    Aproveite o Cifra Club com benefícios exclusivos e sem anúncios
    OK