Cifra Club

La Fama (feat. The Weeknd)

ROSALÍA

Cifra: Principal (violão e guitarra)
tom: Cm
[Intro] Cm  Ab  Bb
        Cm  Ab  Bb

E|------------------------------------------|
B|------------------------------------------|
G|------------------------------------------|
D|-------12-13-12h13p12p10----10------------|
A|-10-13-------------------10---------------|
E|------------------------------------------|
  p.m.........................

E|------------------------------------------|
B|------------------------------------------|
G|------------------------------------------|
D|-------12-13-12h13p12p10----10------------|
A|-10-13-------------------10---------------|
E|------------------------------------------|
  p.m.........................

E|------------------------------------------|
B|------------------------------------------|
G|-------12-12-12p10----10------------------|
D|----10------------------------------------|
A|-11----------------11---------------------|
E|------------------------------------------|
  p.m.........................

E|------------------------------------------|
B|------------------------------------------|
G|-------12-12-12p10----10------------------|
D|----10------------------------------------|
A|-11----------------11---------------------|
E|------------------------------------------|
  p.m.........................

[Primeira Parte] 
 
          Cm                 Ab
Lo que pasó, a ti te lo cuento
      Bb              Cm
No creas que no dolió
                  Ab
O que me lo invento
  Bb              Fm
Así es que se dio
                 Ab
Yo tenía mi bebé
 
                    Bb  Cm
Era algo bien especial

Pero me obsesioné
    Ab                      Bb
Con algo que a él le hacía mal

 Ab            
Miles de cancione' en mi mente
Bb            Cm  Eb
Y él me lo notaba
      Ab           
Y él tanta' vece' que me lo decía
  Bb          Eb
Y yo como si nada

[Refrão] 

Cm                    Ab
   Es mala amante la fama
            Bb             Cm 
No va a quererte de verdad
                     Ab
Es demasia'o traicionera
              Bb            Fm
Y como ella viene, se te va

                  Ab
Sabe' que será celosa
          Bb         Cm        
Yo nunca le confiaré
                       Ab
Si quiere', duerme con ella
               Bb
Pero nunca la vayas a casar

[Segunda Parte] 

          Cm                     Ab
Lo que pasó me ha dejado en vela
    Gm7               Cm
Ya no puedo ni pensar
                    Ab
La sangre le hierve
      Bb           
Siempre quiere más

 Fm                     Bb
Puñaladitas da su ambición
       Ab          
En el pecho, afilada
G7
Es lo peor

[Refrão] 

Cm                    Ab
   Es mala amante la fama
            Bb             Cm 
No va a quererte de verdad
                     Ab
Es demasia'o traicionera
              Bb            Fm
Y como ella viene, se te va

                  Ab
Sabe' que será celosa
          Bb         Cm        
Yo nunca le confiaré
                       Ab
Si quiere', duerme con ella
                  Bb
Pero nunca me la voy a casar

[Ponte] 

Ab               Cm
   No hay manera
               Bb
De que esta obsesión se me fuera
Ab                        Cm
   Se me fuera, ya desaparezca
                   Eb            Ab  Cm
Yo aún no he aprendido la manera
                   Bb         Ab  Gm  Bb
No hay manera que desaparezca

[Refrão] 

Cm                    Ab
   Es mala amante la fama
            Bb             Cm 
No va a quererte de verdad
                     Ab
Es demasia'o traicionera
              Bb            Fm
Y como ella viene, se te va

                  Ab
Sabe' que será celosa
          Bb         Cm        
Yo nunca le confiaré
                       Ab
Si quiere', duerme con ella
                 Bb
Pero nunca la vayas a casar
00:00 / 00:00
Outros vídeos desta música
Repetir
Outros vídeos desta música
Compositor não encontrado.
Colaboração e revisão:
  • Getúlio Vasconcelos
60 exibições
    • ½ Tom
    • Am
    • Bbm
    • Bm
    • Cm
    • C#m
    • Dm
    • Ebm
    • Em
    • Fm
    • F#m
    • Gm
    • G#m
  • Adicionar à lista

    0 comentários

    Ver todos os comentários

    Conseguiu tocar?

    0 Tocaram 0 Ainda não

    Grave um vídeo tocando La Fama (feat. The Weeknd) e nos envie!

    Entre para oCifra Club PRO

    Tenha acesso a benefícios exclusivos no App e no Site

    • Chega de anúncios

    • Prioridade de compra em lançamentos

    • Mais recursos no app do Afinador

    • Atendimento Prioritário

    • Descontos nos produtos Cifra Club

    • Ajude a produzir mais conteúdo

    00:00 / 00:00

    Cifra Club Pro

    Aproveite o Cifra Club com benefícios exclusivos e sem anúncios
    Cifra Club Pro
    Aproveite o Cifra Club com benefícios exclusivos e sem anúncios
    OK