Cifra Club

300 Motion Pictures

Roses Are Red

Cifra: Principal (violão e guitarra)
tom: C
_____________________________________________________________________________

_____________________________________________________________________________

Tabbed by: Cundo
Email: *

Tuning: Drop D DADGBe

Intro Guitar 1
e|---------------|
B|---------------|
G|---------------|
D|-3~------------|
A|-3~------------|
D|-3~------------|

"Lo-Fi" Guitar 2
e|------------------------------------//p---|
B|------------------------------------//i---|
G|------------------------------------//c---|
D|-3x33333--7x77777--5x55555--5x55777-//k---|x2
A|-3x33333--7x77777--5x55555--5x55777-//s---|
D|-3x33333--7x77777--5x55555--5x55777-//l.--|

Intro Continued
e|-----------------------------------------|
B|-----------------------------------------|
G|-----------------------------------------|
D|-3x33333--7x77777--5x55555--5x55777------|x2
A|-3x33333--7x77777--5x55555--5x55777------|
D|-3x33333--7x77777--5x55555--5x55777------|

Guitar 2
e|-//p------------------------------------------------------------------------|
B|-//i------------------------------------------------------------------------|
G|-//c------------------------------------------------------------------------|
D|-//k5x55555/10x1010101010\9x99999-9x99h101010-5x55555/10x10101010\9~9h10\5~-|
A|-//s------------------------------------------------------------------------|
D|-//*|

Guitar 1
e|----------------------------------------------------------------|
B|----------------------------------------------------------------|
G|----------------------------------------------------------------|
D|-3x33333--7x77777--5x55555--5x55777--3x33333--7x77775~--5h7-3~--|
A|-3x33333--7x77777--5x55555--5x55777--3x33333--7x77775~--5h7-3~--|
D|-3x33333--7x77777--5x55555--5x55777--3x33333--7x77775~--5h7-3~--|

Verse
e|-------------------|
B|-------------------|
G|-------------------|
D|-3333333--5555555--|x2
A|-3333333--5555555--|
D|-3333333--5555555--|
PM ....... ........

Guitar 1
e|--------------------|
B|--------------------|
G|--------------------|
D|-3~-----------5~----|x2
A|-3~-----------5~----|
D|-3~-----------5~----|

Guitar 2
e|--------------------|
B|--------------------|
G|--4h5--4h5--4h5-----|
D|-----5~---5~---5~---|x5
A|--------------------|
D|--------------------|

Guitar 2
e|--------------------|
B|--------------------|
G|---44444h555--------|
D|---555555555--------|
A|--------------------|
D|--------------------|

"And Every Smile That You Fake..."
e|-----------------------------------------|
B|-----------------------------------------|
G|-----------------------------------------|
D|-3x33333--7x77777--5x55555--5x55777------|x2
A|-3x33333--7x77777--5x55555--5x55777------|
D|-3x33333--7x77777--5x55555--5x55777------|

Guitar 2
e|-//p------------------------------------------------------------------------|
B|-//i------------------------------------------------------------------------|
G|-//c------------------------------------------------------------------------|
D|-//k5x55555/10x1010101010\9x99999-9x99h101010-5x55555/10x10101010\9~9h10\5~-|
A|-//s------------------------------------------------------------------------|
D|-//*|

Guitar 1
e|----------------------------------------------------------------|
B|----------------------------------------------------------------|
G|----------------------------------------------------------------|
D|-3x33333--7x77777--5x55555--5x55777--3x33333--7x77775~--5h7-3~--|
A|-3x33333--7x77777--5x55555--5x55777--3x33333--7x77775~--5h7-3~--|
D|-3x33333--7x77777--5x55555--5x55777--3x33333--7x77775~--5h7-3~--|

Verse
e|-------------------|
B|-------------------|
G|-------------------|
D|-3333333--5555555--|x2
A|-3333333--5555555--|
D|-3333333--5555555--|
PM ....... ........

Again with this "Lo-Fi" Business lol
e|-----------------------------------|
B|-----------------------------------|
G|-555555----555555----444444----44--|
D|-555555-33-555555-55-555555-55-55--|
A|--------33--------55--------55-----|
D|--------33--------55--------55-----|

Then this again
e|-----------------|
B|-----------------|
G|---44444h555-----|
D|---555555555-----|
A|-----------------|
D|-----------------|

"And Every Smile That You Fake..."
e|-----------------------------------------|
B|-----------------------------------------|
G|-----------------------------------------|
D|-3x33333--7x77777--5x55555--5x55777------|x2
A|-3x33333--7x77777--5x55555--5x55777------|
D|-3x33333--7x77777--5x55555--5x55777------|

Guitar 2
e|-//p------------------------------------------------------------------------|
B|-//i------------------------------------------------------------------------|
G|-//c------------------------------------------------------------------------|
D|-//k5x55555/10x1010101010\9x99999-9x99h101010-5x55555/10x10101010\9~9h10\5~-|
A|-//s------------------------------------------------------------------------|
D|-//*|

Guitar 1
e|-------------------------------------------------------------|
B|-------------------------------------------------------------|
G|-------------------------------------------------------------|
D|-3x33333--7x77777--5x55555--5x55777--3x33333--7x77775~--5h7--|
A|-3x33333--7x77777--5x55555--5x55777--3x33333--7x77775~--5h7--|
D|-3x33333--7x77777--5x55555--5x55777--3x33333--7x77775~--5h7--|

Guitar 1
e|----------------------|
B|----------------------|
G|----------------------|
D|-3~--3-3~--5~--5-5~---|x2
A|-3~--3-3~--5~--5-5~---|
D|-3~--3-3~--5~--5-5~---|

Guitar 2
e|--------------------|
B|--------------------|
G|--4h5--4h5--4h5-----|
D|-----5~---5~---5~---|x8
A|--------------------|
D|--------------------|

Guitar 2
e|--------------------|
B|--------------------|
G|--444444h5555-------|
D|--55555555555-------|
A|--------------------|
D|--------------------|

Chorus AGAIN then this

Guitar 1
e|----------------------|
B|----------------------|
G|----------------------|
D|-3~-7~-5~-7~-3~-7~-5~-|
A|-3~-7~-5~-7~-3~-7~-5~-|
D|-3~-7~-5~-7~-3~-7~-5~-|

Guitar 2
e|---------------------|
B|---------------------|
G|---------------------|
D|-5-10-9-9h10-5-10-9~-|
A|---------------------|
D|---------------------|

END
:woah: that was repetitive. anywho hope this helps, pretty sure it's 100 percent, 
or concerns my email's uptop.

facundo_mundo

http://*

| /  slide up
| \  slide down
| h  hammer-on
| p  pull-off
| ~  vibrato
| +  harmonic
| x  quick stop
=============================================================================
00:00 / 00:00
Outros vídeos desta música
Repetir
Outros vídeos desta música
Compositor não encontrado.
195 exibições
    • ½ Tom
    • A
    • Bb
    • B
    • C
    • Db
    • D
    • Eb
    • E
    • F
    • F#
    • G
    • Ab
  • Adicionar à lista

    0 comentários

    Ver todos os comentários

    Conseguiu tocar?

    0 Tocaram 0 Ainda não

    Grave um vídeo tocando 300 Motion Pictures e nos envie!

    Entre para oCifra Club PRO

    Tenha acesso a benefícios exclusivos no App e no Site

    • Chega de anúncios

    • Prioridade de compra em lançamentos

    • Mais recursos no app do Afinador

    • Atendimento Prioritário

    • Descontos nos produtos Cifra Club

    • Ajude a produzir mais conteúdo

    00:00 / 00:00

    Cifra Club Pro

    Aproveite o Cifra Club com benefícios exclusivos e sem anúncios
    Cifra Club Pro
    Aproveite o Cifra Club com benefícios exclusivos e sem anúncios
    OK