Cifra Club

Aprenda

Sapato Velho

Roupa Nova

Cifra: Versão 6 (violão e guitarra)
tom: A
Intro.: A  G  D  E
        A  G  D  A  D   E

A    D/A     E/A    D   A/C#  Bm
Você lembra, lembra da--que|--le  
A      G#° F#m  
Tempo eu   ti---nha
  F#m7       B/A
Estrelas no olhos 
   G#m7        C#m7
Um jeito de herói
F#m7       D     A/C#   Bm A
Era  mais forte e ve|--loz
    G#°         F#m7  Dm/F   A
Que qualquer mocinho de  cowboy
D/A E/A D/A

A     D/A    E/A
Você lembra, lembra 
D   A/C#  Bm7  A G#°    F#m7
Eu  cos--tu--mava    andar  bem
F#m7        B/A
Mais de mil léguas 
    G#m7      C#m7
Pra poder buscar   
F#m7     D  A/C#    Bm7  A
Flores de mai-o    a---zuis
  G#°       F#m7   Dm/F  A
E os seus cabelos enfei-tar
E7/4/9 A G/A

D      E/D       C#m7    F#4   F#
Água da fonte cansei de beber
B    F#/A# G#m7 F#7    Eb  
Prá não    en---ve-lhecer
G#/Bb Eb7M C#/Eb

G#       Bb/G#    Gm7       C4 C
Como quisesse roubar da manhã  
F   C/E Dm7 C   G#° A D/A E/A 
Um lin-do   pôr de sol
D  A/C#    A  G#°  F#m7 
Ho--je   não co-lho mais as 
F#m7      B/A
Flores de maio
    G#m7       C#7(9)   Bbm7 Eb7(9)
Nem sou mais veloz   como os heróis

Bm7  E7/4/9    A    D/A  E/A 
É    talvez  eu seja simplesmente 
D A/C#       Bm7 A  G#° F#m7   
Como      um sa--pa-to  ve---lho
F#m7      B/A       G#m7    C#m7  
Mas ainda sirvo, se você quiser   
F#m7     D   A/C# Eb7 A
Basta você   me   cal-çar
       G#°      F#m7  Dm/F     A/ 
Que eu aqueço o frio  dos seus pés
 
SOLO:  F G/F F G/F A D/A E/A G6 F G/F Dm7 G/F Dm7 E4 E G/A A7

e|------8-7-8-7-8/10-8---------7-8-10-8-10-10/12--
B|---10----------------10-------------------------
G|-10---------------------9-10--------------------
D|------------------------------------------------
A|------------------------------------------------
E|------------------------------------------------

e|-9-10-9--------------9--12-10-9-----------------
B|--------12-10--10-12------------12-10-9---------
G|----------------------------------------12-10-9-
D|------------------------------------------------
A|------------------------------------------------
E|------------------------------------------------

e|----------------------------------------------8-
B|-------------------------------12^-10-12--6-8---
G|-----------------------9-10-12------------------
D|-12-10-9-------9-10-12--------------------------
A|---------10-12----------------------------------
E|------------------------------------------------

e|------10-------12--------13--15-13-12-----------
B|-8/10----10/12-----12/13------------------------
G|-------------------------------------11/13-11/13
D|------------------------------------------------
A|------------------------------------------------
E|------------------------------------------------

e|-9-10--12-10-9----------------------------------
B|---------------12-10-9---------------9-10-------
G|-----------------------12-10-9-10-12-----12-10-9
D|------------------------------------------------
A|------------------------------------------------
E|------------------------------------------------

e|------------------------------------------------
B|------------------------------------------------
G|------------------------------------------------
D|-9-10-12----------------------------------------
A|------------------------------------------------
E|------------------------------------------------

D     E/D      C#m7     F#4  F#
Água da fonte cansei de beber
B   F#/A# G#m7 F#7     Eb
Prá não   en---ve|--lhecer
G#/Bb Eb7M C#/Eb

G#      Bb/G#     Gm7        C4 C
Como quisesse roubar da manhã  
F   C/E  Dm7 C   G#°  A D/A A 
Um lin-do    pôr de sol
D A/C# Bm7 A  G#° F#m7  
Ho--je   não co-lho mais as
F#m7      B/A
Flores de maio
    G#m7       C#7(9)  Bbm7      Eb7(9) 
Nem sou mais veloz   como os heróis

Bm7   E7/4/9)   A    D/A  E/A  
É    talvez  eu seja simplesmente 
D A/C#    Bm7 A  G#°  F#m7    
Como   um sa--pa-to  ve|---lho
F#m7      B/A       G#m7    C#m7  
Mas ainda sirvo, se você quiser   
F#m7     D    A/C# Bm7 A
Basta você   me    cal-çar
       G#°      F#m7  Dm/F     A/E  
Que eu aqueço o frio  dos seus pés 
      D/E
É    talvez  eu seja simplesmente como  um sapato  velho
Mas ainda sirvo, se você quiser   basta você   me   calçar
Que eu aqueço o frio  dos seus pés
 
A D/A E/A D/A A D/A E/A D/A A
Composição de Cláudio Nucci / Mu / Paulinho Tapajós
Colaboração e revisão:
  • André Rampinelli
22.881 exibições
  • Simplificar cifra
    • ½ Tom
    • A
    • Bb
    • B
    • C
    • Db
    • D
    • Eb
    • E
    • F
    • F#
    • G
    • Ab
  • Adicionar à lista

    0 comentários

    Ver todos os comentários
    00:00 / 00:00
    outros vídeos desta música
    repetir qualidade Automático
    Outros vídeos desta música
    00:00 / 00:00
    Automático
    Capítulos
    • Tocando a Música
    • Apresentação / Equipamentos
    • Acordes Introdução
    • Tocando Introdução
    • Ritmo da Música
    • Frase Introdução
    • Acordes Primeira Parte
    • Tocando Primeira Parte
    • Ritmo Primeira Parte
    • Acordes Segunda Parte
    • Tocando Segunda Parte
    • Dicas Terceira Parte
    • Acordes Base do Solo
    • Tocando Terceira Parte - Solo
    • Dicas Final
    • Tocando Solo Introdução
    • Solo Introdução Lento
    • Ensinando Solo Introdução - Parte 1
    • Ensinando Solo Introdução - Parte 2
    • Ensinando Solo Introdução - Parte 3
    • Ensinando Solo Introdução - Parte 4
    • Tocando Solo Principal
    • Solo Principal Lento
    • Ensinando Solo Principal - Parte 1
    • Ensinando Solo Principal - Parte 2
    • Ensinando Solo Principal - Parte 3
    • Ensinando Solo Principal - Parte 4
    • Ensinando Solo Principal - Parte 5
    • Ensinando Solo Principal - Parte 6
    • Ensinando Solo Principal - Parte 7
    • Ensinando Solo Principal - Parte 8
    • Encerramento

    Cifra Club Pro

    Aproveite o Cifra Club com benefícios exclusivos e sem anúncios
    Cifra Club Pro
    Aproveite o Cifra Club com benefícios exclusivos e sem anúncios
    OK