Cifra Club

Listen To Your Heart

Roxette

Cifra: Principal
exibições 245.085
Tom: G
     Bm       G          A      Bm                 G        A      Bm
E|----------5---3---2--0------2----------5-2------------------0----------|
B|-------3-----------------3-----------3-----5-3-0------0-2------3--2-0--|
G|----4------------------------------4----------------2------------------|
D|-----------------------------------------------------------------------|
A|-2-------------------0------2------2--------------------0------2-------|
E|----------3------------------------------------3-----------------------|

              G          A      Bm                 G         Em
E|----------5---3---2--0------2----------5-2---------------0---|
B|-------3-----------------3-----------3-----5-3-0---0--3------|
G|----4------------------------------4-------------------------|
D|-------------------------------------------------------------|
A|-2-------------------0------2------2-------------------------|
E|----------3------------------------------------3----------0--|

    Bm                  G            A            Bm
    I know there’s something in the wake of your smile
             G               A            Bm
    I get a notion from the look in your eyes
                     G            A           Bm
    You've built a love but that love falls apart
                                 G            Em
    Your little piece of heaven     turns too dark

                   Bm    G            D           A
    Listen to your heart   when he's calling for you
                   Bm    G                 D            A
    Listen to your heart   there's nothing else you can do
            D                 A         G            D
    I don't know where you're going and I don't know why
                       Bm    G        A                  Bm*
    But listen to your heart   before   you tell him goodbye

     Bm*      G     A           Bm                 G        A      Bm
E|----------5---3---2--0------2----------5-2-0----------------0-------------------|
B|-------3-----------------3-----------3-------3-0------0-2------3--2-0-----------|
G|----4------------------------------4----------------2---------------------------|
D|--------------------------------------------------------------------------------|
A|-2-------------------0------2------2--------------------0------2----------------|
E|----------3------------------------------------3--------------------------------|

              G                  A             Bm
    Sometimes you wonder if this fight is worthwhile
                  G               A           Bm
    The precious moments are all lost in the tide       B|-----3--3------|
                                                        G|-2h4-------2/4-|
                  G           A                Bm
    They're swept away and nothing is what it seems
                             G         Em
    The feeling of belonging   to your dreams

                   Bm    G           D           A
    Listen to your heart   when he's calling for you
                   Bm    G                 D            A
    Listen to your heart   there's nothing else you can do
            D                 A         G            D
    I don't know where you're going and I don't know why
                       Bm    G        A                  Bm
    But listen to your heart   before   you tell him goodbye

Solo: G  A  Bm  G  A  Bm  D  A  G  D  Bm  G  A

Solo:

E|-----------------------------------------------------------------------------|
B|--11b~---11/3------------------------------------5---------------10----------|
G|---------------------------9b10r9-7h9----------7----7-4----7h9-----9/11--|
D|------------------------------------------9-7h9------------5-----------------|
A|---------10/2---5b6r5--------------------------------------------------------|
E|-----------------------------------------------------------------------------|

E|-13b-111213-13b~-109-7----------------------------------------------------------|
B|----------------------------------------1313b1212-------------------------------|
G|-------------------------8/10b~7~-----------------1211-9-9b-----9---------------|
D|-------------------------------------------------------------------12---12-11-9-|
A|--------------------------------------------------------------------------------|
E|--------------------------------------------------------------------------------|

E|------------------------------------------------------|
B|------------------------------------------------------|
G|---9-8-4-6-5-6------9-8-6-4-4---------4--6------------|
D|---------------------------------------7--------------|
A|-- 7-6-2-4-3-4------7-6-4-2-2----------2--4-----------|
E|---------------------------------------5--------------|

  E
    And there are voices that want to be heard
C#m
    So much to mention but you can't find the words
  B                         A
    The scent of magic, the beauty that's been
  B                      C#
    When love was wilder    than the wind

                   D#m   B           F#          C#
    Listen to your heart   when he's calling for you
                   D#m   B                 F#           C#
    Listen to your heart   there's nothing else you can do
            F#                C#        B            F#
    I don't know where you're going and I don't know why
                       D#m   B        C#
    But listen to your heart   before

                   D#m   B           F#          C#
    Listen to your heart   when he's calling for you
                   D#m   B                 F#           C#
    Listen to your heart   there's nothing else you can do
            F#                C#        B            F#
    I don't know where you're going and I don't know why
                       D#m   B        C#                 D#m   B  C#  D#m  B  C#  D#m
    But listen to your heart   before   you tell him goodbye

     D#m      B          C#     D#m                B         G#m   D#m   B  C#  D#m
E|----------9---7---6--4------6----------9-6---------------4----------------------|
B|-------7-----------------7-----------7-----9-7----------------------------------|
G|----8------------------------------8-----------8---6--8-------------------------|
D|--------------------------------------------------------------------------------|
A|-6-------------------4------6------6--------------------------------------------|
E|----------7------------------------------------7----------4---------------------|

                          B  C#  D#m
    Listen to your heart
                          B  C#  D#m
    Listen to your heart
           (take a listen to)
                          B  C#  D#m
    Listen to your heart
                                (take, take a listen to)
                          B  C#  D#m
    Listen to your heart
                          B  C#  D#m
    Listen to your heart
                            B          C#     D#m
    Listen to your heart

E|-----------9---7---6--4------6---|
B|--------7-----------------7------|
G|-----8---------------------------|
D|---------------------------------|
A|--6-------------------4------6---|
E|-----------7---------------------|

                               B        C#     D#m
    Listen to your heart
E|------9-6-4----------------4----------|
B|----7-------7-4------4-6------7--6-4--|
G|--8----------------6------------------|
D|--------------------------------------|
A|--6--------------------4------6-------|
E|--------------7-----------------------|

                            B          C#     D#m
    Listen to your heart
E|-----------9---7---6--4------6---|
B|--------7-----------------7------|
G|-----8---------------------------|
D|---------------------------------|
A|--6-------------------4------6---|
E|-----------7---------------------|

                               B        C#     D#m
    Listen to your heart
E|------9-6-4----------------4----------|
B|----7-------7-4------4-6------7--6-4--|
G|--8----------------6------------------|
D|--------------------------------------|
A|--6--------------------4------6-------|
E|--------------7-----------------------|

                            B          C#     D#m
    Listen to your heart
E|-----------9---7---6--4------6---|
B|--------7-----------------7------|
G|-----8---------------------------|
D|---------------------------------|
A|--6-------------------4------6---|
E|-----------7---------------------|

                               B        C#     D#m
    Listen to your heart
E|------9-6-4----------------4----------|
B|----7-------7-4------4-6------7--6-4--|
G|--8----------------6------------------|
D|--------------------------------------|
A|--6--------------------4------6-------|
E|--------------7-----------------------|

                            B          C#     D#m              B        C#     D#m
    Listen to your heart
E|-----------9---7---6--4------6--------9-6-4----------------4----------|
B|--------7-----------------7---------7-------7-4------4-6------7--6-4--|
G|-----8----------------------------8----------------6------------------|
D|----------------------------------------------------------------------|
A|--6-------------------4------6----6--------------------4------6-------|
E|-----------7----------------------------------7-----------------------|

    D#m      B          C#     D#m              B        C#     D#m

E|-----------9---7---6--4------6--------9-6-4----------------4----------|
B|--------7-----------------7---------7-------7-4------4-6------7--6-4--|
G|-----8----------------------------8----------------6------------------|
D|----------------------------------------------------------------------|
A|--6-------------------4------6----6--------------------4------6-------|
E|-----------7----------------------------------7-----------------------|
Acordes para:
    Colaboração e revisão:

    0 comentários

      mostrar mais comentários

      Conseguiu tocar?

      22tocaram0ainda não

      Grave um vídeo tocando Listen To Your Heart e mande pra gente!

      00:00 / 00:00
      outros vídeos desta música
      repetirqualidadeautomática
      Outro vídeos desta música
        00:00 / 00:00
        automática
        OK