Cifra Club

Little Monster

Royal Blood

Cifra: Principal (violão e guitarra)
tom: C
Afinação: Drop C

( C  G  C  F  A  D )

Riff da música toda:
F|---------------------------------|
C|----5p3---------5p3-5p3----------|
G|--------5~-----------------------|
C|--0------0-----0-----------------|

Verso 1:

Hey little monster, I got my eye on you....
F|-------------------------------|
C|--3----------------------------|
G|--3----------------------------|
C|--3 hold----12slide down-------|

Refrão:

I've got love on my fingers, lust on my tongue...
F|-------------------------------------------|
C|--8-8--10/5---5-0h5--0h5-----3-3-5-0-------|
G|--8-8--10/5---5-0h5--0h5-----3-3-5-0-------|
C|--8-8--10/5---5-0h5--0h5-----3-3-5-0-------|

Verso 2:

Hey little creature, tell me what's on your mind...
F|-------------------------------|
C|--3----------------------------|
G|--3----------------------------|
C|--3 hold----12slide down-------|

(Refrão)

Solo:

F|---------------------------|
C|----5p3-------------3------|
G|--------5~------3p5---5----|
C|--0------0-----0-----------|

F|--------------------------|
C|----5p3-------------3-----|
G|--3----5~-------3p5---5---|
C|--------------------------|

F|--------------------------|
C|----5p3-------------3-----|
G|--2----5~-------3p5---5---|
C|--------------------------|

F|--------------------------|
C|----5p3-------------3-----|
G|--1----5~-------3p5---5---|
C|--------------------------|

F|--------------------------|
C|--------------------------|
G|--------------------------|
C|-----------5b6b5-3-0------|

(Riff 1)

Riff 2:
F|------------------------------------|
C|----12-12--10--9--10--10--9---7-----|
G|------------------------------------|
C|------------------------------------|

(Refrão)

Riff 3 final:

F|------------------------------|
C|------------------------------|
G|------------------------------|
C|-----------5b6b5-3-0----------|

F|-------------------------------|
C|-------------------------------|
G|-------------------------------|
C|----------5b6b5-3/12-----------|
00:00 / 00:00
Outros vídeos desta música
Repetir
Outros vídeos desta música
Compositor não encontrado.
Colaboração e revisão:
  • Tifanny Dan
11.227 exibições
    • ½ Tom
    • A
    • Bb
    • B
    • C
    • Db
    • D
    • Eb
    • E
    • F
    • F#
    • G
    • Ab
  • Adicionar à lista

    0 comentários

    Ver todos os comentários

    Conseguiu tocar?

    3 Tocaram 1 Ainda não

    Grave um vídeo tocando Little Monster e nos envie!

    Entre para oCifra Club PRO

    Tenha acesso a benefícios exclusivos no App e no Site

    • Chega de anúncios

    • Prioridade de compra em lançamentos

    • Mais recursos no app do Afinador

    • Atendimento Prioritário

    • Descontos nos produtos Cifra Club

    • Ajude a produzir mais conteúdo

    00:00 / 00:00

    Cifra Club Pro

    Aproveite o Cifra Club com benefícios exclusivos e sem anúncios
    Cifra Club Pro
    Aproveite o Cifra Club com benefícios exclusivos e sem anúncios
    OK