Cifra Club

Life Songs

Rufio

Tab de baixo: Principal
+++++++++++++++++++++
+++++++++++++++++++++

EADG

Intro
1.
G|-----------------------------------------|
D|-----------------------------------------|
A|-----------------------------------------|
E|-9\1111-1111-1111-333-1111-1111-1111-333-|

Verse
"It's been so long.."
2.
G|----------------------|
D|---------2~-----------|
A|---4--4-------2----5~-|
E|-55----00---33---22---|

Pre-Chorus
"How long?"
3.
G|--------------------|
D|--------------------|
A|--------------------|
E|-1111-1111-1111-333-|

Verse
"And I wish I could.."
4.
G|-----------------------|
D|---------2~------------|
A|---4--4-------2--2--5~-|
E|-55----00---33----22---|

Pre-Chorus
"So much.."
5.
G|---------------------------------------|
D|---------------------------------------|
A|---------------------------------------|
E|-1111-1111-1111-333-1111-1111-1111-333-|

Chorus
"So please, Dont sit and watch the rain.." 
6.
G|------------------------------------------|
D|------------------------------------------|
A|------------------------------------------|
E|-5555-5555-0000-0000-1111-1111-1111-1-333-|

"So get back, get back" 
7.
G|-----------------------------------------|
D|-----------------------------------------|
A|-3333-3333-5555-5555---------------------|
E|---------------------1111-1111-1111-1111-|

"You see? You waited for a life from me.." 
8.
G|------------------------------------------|
D|------------------------------------------|
A|------------------------------------------|
E|-5555-5555-0000-0000-1111-1111-1111-1-333-|

"So get back, get back.." 
9.
G|---------------------|
D|---------------------|
A|-3333-3333-5555-5555-|
E|---------------------|

Outro
10.
G|---------------------------------------|
D|---------------------------------------|
A|---------------------------------------|
E|-1111-1111-1111-333-1111-1111-1111-333-|

Verse
"Just like father's side.."
11.
G|-----------------------|
D|---------2~------------|
A|---4--4-------2--2--5~-|
E|-55----00---33----22---|

Pre-Chorus
"How hard?"
12.
G|--------------------|
D|--------------------|
A|--------------------|
E|-1111-1111-1111-333-|

Verse
"And Im finding out.."
13.
G|-----------------------|
D|---------2~------------|
A|---4--4-------2--2--5~-|
E|-55----00---33----22---|

Pre-Chorus
14.
G|---------------------------------------|
D|---------------------------------------|
A|---------------------------------------|
E|-1111-1111-1111-333-1111-1111-1111-333-|

Chorus
"So please, dont sit and watch the rain.." 
15.
G|------------------------------------------|
D|------------------------------------------|
A|------------------------------------------|
E|-5555-5555-0000-0000-1111-1111-1111-1-333-|

"So get back, get back.." 
16.
G|-----------------------------------------|
D|-----------------------------------------|
A|-3333-3333-5555-5555---------------------|
E|---------------------1111-1111-1111-1111-|

"You see? You waited for a life from me.." 
17.
G|------------------------------------------|
D|------------------------------------------|
A|------------------------------------------|
E|-5555-5555-0000-0000-1111-1111-1111-1-333-|

"So get back, get back.." 
18.
G|---------------------|
D|---------------------|
A|-3333-3333-5555-5555-|
E|---------------------|

Outro
19.
G|-----------------------|
D|-----------------------|
A|-----------------------|
E|-1111-1111-1111-333-5x-|

20.                      21.
G|--------------------| |------------------------|
D|--------------------| |------------------------|
A|-------------000-3x-| |-------------000-333----|
E|-1-0-1-0-1-3--------| |-1-0-1-0-1-3---------2x-|

22.
G|-------------------------------|
D|-------------------------------|
A|-------------000-333-----------|
E|-1-0-1-0-1-3---------2222-2222-|

23.
G|----------------------------------------------------------|
D|----------------------------------------------------------|
A|------------------------------------------0-0-0-0-0-0-0-0-|
E|-1-0-1-0-1-3x--1-0-1-0-1-3x--1-0-1-0-1-3x-----------------|

Chorus
"So please, dont sit and watch the rain.." 
24.
G|------------------------------------------|
D|------------------------------------------|
A|------------------------------------------|
E|-5555-5555-0000-0000-1111-1111-1111-1-333-|

"So get back, get back.." 
25.
G|-----------------------------------------|
D|-----------------------------------------|
A|-3333-3333-5555-5555---------------------|
E|---------------------1111-1111-1111-1111-|

"You see? You waited for a life from me.." 
26.
G|------------------------------------------|
D|------------------------------------------|
A|------------------------------------------|
E|-5555-5555-0000-0000-1111-1111-1111-1-333-|

"So get back, get back.."
27.
G|-----------------------------------------|
D|---------------------3333-3333-3333-3333-|
A|-3333-3333-5555-5555---------------------|
E|-----------------------------------------|

Outro
"So get up, get up.."
28.
G|-----------------------------------------------------------|
D|-----------------------------------------------------------|
A|-3333-3333-5555-5555---------------------------------------|
E|---------------------1111-1111-1111-333-1111-1111-1111-333-|

29.
G|--------------------------|
D|--------------------------|
A|-000-333------------------|
E|---------2x--1-0-1-0-1-3x-|

+++++++++++++++
Composição de Rufio / Scott Sellers
266 exibições

0 comentários

Ver todos os comentários

Conseguiu tocar?

0 Tocaram 0 Ainda não

Grave um vídeo tocando Life Songs e nos envie!

00:00 / 00:00
Outros vídeos desta música
Repetir Qualidade Automático
Outros vídeos desta música
00:00 / 00:00
Automático

Cifra Club Pro

Aproveite o Cifra Club com benefícios exclusivos e sem anúncios
Cifra Club Pro
Aproveite o Cifra Club com benefícios exclusivos e sem anúncios
OK