Cifra Club

Out Of Control

Rufio

Cifra: Principal (violão e guitarra)
tom: D
intro
Guitarra 1
|-----------------------|---------------------------|
|-------------5---------|------7--5----7--5---------|
|-----6---------6---6---|---------------------6-----|
|--4----7-6-------7-----|-----------7-------7-------|
|-----------------------|---5-----------------------|
|-----------------------|---------------------------|

|-----------------------|---------------------------|
|-------------5---------|------5--5-5---5-5---------|
|-----6---------6---6---|------7--7-7---7-7---------|
|--4----7-6-------7-----|------7--7-7---7-7---------|
|-----------------------|---5--5--5-5---5-5-5-------|
|-----------------------|---------------------------|
Guitarra 2 
|-----------------------------------------------------------------------|
|-----------------------------------------------------------------------|
|------------------------------x--77-x-77---( 2 X)----------------------|
|-------------------44-x-7--7--x--77-x-77-------------------------------|
|--(deslizando)15---44-x-7--7--x--55-x-55-------------------------------|
|-------------------22-x-5--5--x----------------------------------------|

Guitarra 1
|-----------------------------------------------------------------------|
|-----------------------------------------------------------------------|
|----------2--1----------------2-1-----------------6--------------------|
|-------4-------4--2---------4------4--2-----0--7--------9--7--6--------|
|-----------------------------------------------------------------------|
|--2----------------2---------------------------------------------------|

|-----------------------------------------------------------------------|
|-----------------------------------------------------------------------|
|---------6-------------7--6--------------------------------------------|
|--0--7--------9--7--6--------------------------------------------------|
|-----------------------------------------------------------------------|
|-----------------------------------------------------------------------|

verso
Guitarra 1 e Guitarra 2
|-----------------------------------------------------------------------|
|-----------------------------------------------------------------------|
|--------------------------------------------77-x-x-77--x-x-------------|
|--44-x-x-44-x-x-44-x-x-44-x-x-77-x-x-77-x-x-77-x-x-77--x-x-------------|abafado
|--44-x-x-44-x-x-44-x-x-44-x-x-77-x-x-77-x-x-55-x-x-55--x-x-------2-x---|
|--22-x-x-22-x-x-22-x-x-22-x-x-55-x-x-55-x-x------------x-x-------------|

|-----------------------------------------------------------------------|
|-----------------------------------------------------------------------|
|--------------------------------------------77-x-x-77--x-x-------------|
|--44-x-x-44-x-x-44-x-x-44-x-x-77-x-x-77-x-x-77-x-x-77--x-x-------------|aberto
|--44-x-x-44-x-x-44-x-x-44-x-x-77-x-x-77-x-x-55-x-x-55--x-x-------2-x---|
|--22-x-x-22-x-x-22-x-x-22-x-x-55-x-x-55-x-x------------x-x-------------|

pré refrão
Guitarra 1 e Guitarra 2
|--------------------------------------------------------|começa abafado
|--------------------------------------------------------|e vai soltando 
|--------------------------------------------------------|ate o final
|------------------------------------------2--2----------|
|------------------------------------------2--2----------|
|-2--0--2----0-----5---0---5---0---0--0----0--0----------|

Guitarra 1
|----------------------------------------------------------------------------|
|----------------------------------------------------------------------------|
|----------------------------------------------------------------------------|
|---------------------2---0---0----------------------------------------------|
|-------------2---4----------------4--4--2--2--0--0-2--2--0--0---------------|
|---0--2--4------------------------------------------------------4-4---------|

|----------------------------------------------------------------------------|
|----------------------------------------------------------------------------|
|----------------------------------------------------------------------------|
|---------------------2---4---4----2--2--0--0--------------------------------|
|-------------2---4-----------------------------4--4--5--5-4--4--------------|
|---0--2--4------------------------------------------------------2-2---------|

Guitarra 2
|-----------------------------------------------------------------------|
|-----------------------------------------------------------------------|
|-----------------------------------------------------------------------|
|--------4--4-x-4-4-x-4-4-------4444444-22222222---4444444-22222222-----|
|--------4--4-x-4-4-x-4-4-------4444444-22222222---4444444-22222222-----|
|---0----2--2-x-2-2-x-2-2------22222222-00000000---2222222-00000000-----|

|-----------------------------------------------------------------------|
|-----------------------------------------------------------------------|
|-----------------------------------------------------------------------|
|--------4--4-x-4-4-x-4-4--------4444444---2222222--444444--2222--------|
|--------4--4-x-4-4-x-4-4--------4444444---2222222--444444--2222--------|
|---0----2--2-x-2-2-x-2-2--------2222222---0000000--222222--0000--------|

pré-intro da 2º parte
Guitarra 1
|-----------------------------------------------------------------------|
|-----------------------------------------------------------------------|
|----------2--1----------------2-1-----------------6--------------------|
|-------4-------4--2---------4------4--2-----0--7--------9--7--6--------|
|-----------------------------------------------------------------------|
|--2----------------2---------------------------------------------------|

|-----------------------------------------------------------------------|
|-----------------------------------------------------------------------|
|---------6-------------7--6--------------------------------------------|
|--0--7--------9--7--6--------------------------------------------------|
|-----------------------------------------------------------------------|
|-----------------------------------------------------------------------|

verse
Guitarra 1 e Guitarra 2
|-----------------------------------------------------------------------|
|-----------------------------------------------------------------------|
|--------------------------------------------77-x-x-77--x-x-------------|
|--44-x-x-44-x-x-44-x-x-44-x-x-77-x-x-77-x-x-77-x-x-77--x-x-------------|abafado
|--44-x-x-44-x-x-44-x-x-44-x-x-77-x-x-77-x-x-55-x-x-55--x-x-------2-x---|
|--22-x-x-22-x-x-22-x-x-22-x-x-55-x-x-55-x-x------------x-x-------------|

|-----------------------------------------------------------------------|
|-----------------------------------------------------------------------|
|--------------------------------------------77-x-x-77--x-x-------------|
|--44-x-x-44-x-x-44-x-x-44-x-x-77-x-x-77-x-x-77-x-x-77--x-x-------------|aberto
|--44-x-x-44-x-x-44-x-x-44-x-x-77-x-x-77-x-x-55-x-x-55--x-x-------2-x---|
|--22-x-x-22-x-x-22-x-x-22-x-x-55-x-x-55-x-x------------x-x-------------|

|----------------------------------------------------------------------------|começa abafado e
|----------------------------------------------------------------------------|vai soltando
|----------------------------------------------------------------------------|
|------------------------------------------2--2------------------------------|
|------------------------------------------2--2-----2-2--0-0-----------------|esse finzinho é
|-2--0--2----0-----5---0---5---0---0--0----0--0--------------4--4--0---------|só na 1º parte feito pelo Guitarra 1

Guitarra 1
|----------------------------------------------------------------------------|
|----------------------------------------------------------------------------|
|----------------------------------------------------------------------------|
|---------------------2---0---0----------------------------------------------|
|-------------2---4----------------4--4--2--2--0--0-2--2--0--0---------------|
|---0--2--4------------------------------------------------------4-4---------|

|----------------------------------------------------------------------------|
|----------------------------------------------------------------------------|
|----------------------------------------------------------------------------|
|---------------------2---4---4----2--2--0--0--------------------------------|
|-------------2---4-----------------------------4--4--5--5-4--4--------------|
|---0--2--4------------------------------------------------------2-2---------|

Guitarra 2
|-----------------------------------------------------------------------|
|-----------------------------------------------------------------------|
|-----------------------------------------------------------------------|
|--------4--4-x-4-4-x-4-4-------44444444-22222222-444444444-2222222-----|
|--------4--4-x-4-4-x-4-4-------44444444-22222222-444444444-2222222-----|
|---0----2--2-x-2-2-x-2-2-------22222222-00000000-222222222-0000000-----|

|-----------------------------------------------------------------------|
|-----------------------------------------------------------------------|
|-----------------------------------------------------------------------|
|--------4--4-x-4-4-x-4-4--------4444444---2222222--444444--2222--------|
|--------4--4-x-4-4-x-4-4--------4444444---2222222--444444--2222--------|
|---0----2--2-x-2-2-x-2-2--------2222222---0000000--222222--0000--------|

Guitarra 1
|-----------------------|---------------------------|
|-------------5---------|------7--5----7--5---------|
|-----6---------6---6---|---------------------6-----|
|--4----7-6-------7-----|-----------7-------7-------|
|-----------------------|---5-----------------------|
|-----------------------|---------------------------|

|-----------------------|---------------------------|
|-------------5---------|------5--5-5---5-5---------|
|-----6---------6---6---|------7--7-7---7-7---------|
|--4----7-6-------7-----|------7--7-7---7-7---------|
|-----------------------|---5--5--5-5---5-5-5-------|
|-----------------------|---------------------------|

Guitarra 2
|-----------------------------------------------------------------------|
|-----------------------------------------------------------------------|
|---------------------------------77-x-x-77--x-x------------------------|
|--44-x-x--x-44-x-x-77-x-x-77-x-x-77-x-x-77--x-x------------------------|
|--44-x-x--x-44-x-x-77-x-x-77-x-x-55-x-x-55--x-x------------------------|
|--22-x-x--x-22-x-x-55-x-x-55-x-x------------x-x------------------------|

Guitarra 2 4x
|---5--------2--------|
|---7--------2--------|toca o acorde 1x e 
|---7--------3--------|sutenta
|---7--------4--------|
|---5--------4--------|
|---5--------2--------|

Guitarra 1 2x
|----------------------------------------------|
|----------------------------------------------|começa na 3º parte 
|----------------------------------------------|da Guitarra 2
|--4-4-2-2-0-0----------------------4-4---2-2--|
|--------------4-4-5-5-4-4-2-2------4-4---2-2--|
|--------------------------------0--2-2---0-0--|

Guitarra 1
|----------------------------------------------------------------------------|
|----------------------------------------------------------------------------|
|----------------------------------------------------------------------------|
|---------------------2---0---0----------------------------------------------|
|-------------2---4----------------4--4--2--2--0--0-2--2--0--0---------------|
|---0--2--4------------------------------------------------------4-4---------|

|----------------------------------------------------------------------------|
|----------------------------------------------------------------------------|
|----------------------------------------------------------------------------|
|---------------------2---4---4----2--2--0--0--------------------------------|
|-------------2---4-----------------------------4--4--5--5-4--4--------------|
|---0--2--4------------------------------------------------------2-2---------|

Guitarra 2
|-----------------------------------------------------------------------|
|-----------------------------------------------------------------------|
|-----------------------------------------------------------------------|
|--------4--4-x-4-4-x-4-4-------44444444-22222222-444444444-2222222-----|
|--------4--4-x-4-4-x-4-4-------44444444-22222222-444444444-2222222-----|
|---0----2--2-x-2-2-x-2-2-------22222222-00000000-222222222-0000000-----|

|-----------------------------------------------------------------------|
|-----------------------------------------------------------------------|
|-----------------------------------------------------------------------|
|--------4--4-x-4-4-x-4-4--------4444444---2222222--444444--2222--------|
|--------4--4-x-4-4-x-4-4--------4444444---2222222--444444--2222--------|
|---0----2--2-x-2-2-x-2-2--------2222222---0000000--222222--0000--------|

final com as 2 guitarras
|-----------------------------------------------------------------------|
|-----------------------------------------------------------------------|
|----------2--1----------------2-1-----------------6--------------------|
|-------4-------4--2---------4------4--2-----0--7--------9--7--6--------|
|-----------------------------------------------------------------------|
|--2-------------------2------------------------------------------------|

|------------------------------------------*----------------------------|
|------------------------------------------*----------------------------|
|---------6-------------7--6---------------*----------------------------|
|--0--7--------9--7--6---------------------*---4----------------------0-|
|------------------------------------------*---4----   deslizando   --0-|
|------------------------------------------*---2----------------------0-|
Composição de Rufio / Scott Sellers
Colaboração e revisão:
  • Ravel Dunningham
5.312 exibições
    • ½ Tom
    • A
    • Bb
    • B
    • C
    • Db
    • D
    • Eb
    • E
    • F
    • F#
    • G
    • Ab
  • Adicionar à lista

    0 comentários

    Ver todos os comentários

    Conseguiu tocar?

    0 Tocaram 0 Ainda não

    Grave um vídeo tocando Out Of Control e nos envie!

    00:00 / 00:00
    Outros vídeos desta música
    Repetir Qualidade Automático
    Outros vídeos desta música
    00:00 / 00:00
    Automático

    Cifra Club Pro

    Aproveite o Cifra Club com benefícios exclusivos e sem anúncios
    Cifra Club Pro
    Aproveite o Cifra Club com benefícios exclusivos e sem anúncios
    OK