Rock Box

Run DMC

Composição de: Darryl McDaniels / Joseph Simmons / Lawrence Smith
tom: G
This is my first tab, so please do be too much of a critic.
This is also a very complicated song. So pratice it a lot.


Use distortion
Wait for them to say "Run, Run" then...

E|-----------------|
B|-----------------|
G|---2--4--5-------|
D|---2--4--5--5--3-|
A|---0--2--3--5--3-|
E|------------3--1-|

Start when the solo begins

---------------------------------------------------------------------------
                      |                                     |
        Rhythem Guitar               |    Lead Guitar (Only 2 Solos Known) |
                                     |                                     |
E|------------------------------|    |    |-12----------------------------||
B|------------------------------|    |    |-----------15--15------13------||
G|--------------2----2--4--5----|    |    |-------------------------------||
D|-3----5--5----2----2--4--5--5-|    |    |-------------------------------||
A|-3----5--5----0----0--2--3--5-|    |    |-------------------------------||
E|-1----3--3------------------3-|    |    |-------------------------------||
                                     |                                     |
E|------------------------------|    |    |-15----------------------------||
B|------------------------------|    |    |-----------18--18------16------||
G|--------------2----2--4--5----|    |    |-------------------------------||
D|-3----5--5----2----2--4--5--5-|    |    |-------------------------------||
A|-3----5--5----0----0--2--3--5-|    |    |-------------------------------||
E|-1----3--3------------------3-|    |    |-------------------------------||
                                     |                                     |
E|------------------------------|    |    |-------------------------------||
B|------------------------------|    |    |--5---5--5--5--5-5-5555--7-3*--||
G|--------------2----2--4--5----|    |    |-------------------------------||
D|-3----5--5----2----2--4--5--5-|    |    |-------------------------------||
A|-3----5--5----0----0--2--3--5-|    |    |-------------------------------||
E|-1----3--3------------------3-|    |    |-------------------------------||
                                     |                                     |
E|------------------------------|    |    |------0--1--2--3--5--5/12--12\0||
B|------------------------------|    |    |-1--3--------------------------||
G|--------------2----2--4--5----|    |    |-------------------------------||
D|-3----5--5----2----2--4--5--5-|    |    |-------------------------------||
A|-3----5--5----0----0--2--3--5-|    |    |-------------------------------||
E|-1----3--3------------------3-|    |    |-------------------------------||
                                     |                                     |
E|------------------------------|    |                                     |
B|------------------------------|    |                                     |
G|--------------2----2--4--5----|    |                                     |
D|-3----5--5----2----2--4--5--5-|    |                                     |
A|-3----5--5----0----0--2--3--5-|    |                                     |
E|-1----3--3------------------3-|    |                                     |
                                     |                                     |
E|------------------------------|    |                                     |
B|------------------------------|    |                                     |
G|--------------2----2--4--5----|    |                                     |
D|-3----5--5----2----2--4--5--5-|    |                                     |
A|-3----5--5----0----0--2--3--5-|    |                                     |
E|-1----3--3------------------3-|    |                                     |
                                     |                                     |
E|------------------------------|    |                                     |
B|------------------------------|    |                                     |
G|--------------2----2--4--5----|    |                                     |
D|-3----5--5----2----2--4--5--5-|    |                                     |
A|-3----5--5----0----0--2--3--5-|    |                                     |
E|-1----3--3------------------3-|    |                                     |
                                     |                                     |
E|------------------------------|    |    |-13-13-12-13-13-----15---15\9--||
B|------------------------------|    |    |-------------------------------||
G|--------------2----2--4--5----|    |    |-------------------------------||
D|-3----5--5----2----2--4--5--5-|    |    |-------------------------------||
A|-3----5--5----0----0--2--3--5-|    |    |-------------------------------||
E|-1----3--3------------------3-|    |    |-------------------------------||
                                     |                                     |
E|------------------------------|    |    |-9\5~~~~~~~~~~~----------------||
B|------------------------------|    |    |-------------------------------||
G|--------------2----2--4--5----|    |    |-------------------------------||
D|-3----5--5----2----2--4--5--5-|    |    |-------------------------------||
A|-3----5--5----0----0--2--3--5-|    |    |-------------------------------||
E|-1----3--3------------------3-|    |    |-------------------------------||
                                     |                                     |
E|------------------------------|    |---------------------------------------|
B|---------------------------------------------------------------------------|
G|--------------2----2--4--5-------------------------------------------------|
D|-3----5--5----2----2--4--5--5----------------------------------------------|
A|-3----5--5----0----0--2--3--5----------------------------------------------|
E|-1----3--3------------------3----------------------------------------------|

E|------------------------------|
B|------------------------------|
G|--------------2----2--4--5----|
D|-3----5--5----2----2--4--5--5-|
A|-3----5--5----0----0--2--3--5-|
E|-1----3--3------------------3-|

E|------------------------------|
B|------------------------------|
G|--------------2----2--4--5----|
D|-3----5--5----2----2--4--5--5-|
A|-3----5--5----0----0--2--3--5-|
E|-1----3--3------------------3-|

E|------------------------------|
B|------------------------------|
G|-------------------2--4--5----|
D|-3-----------------2--4--5--5-|
A|-3-----------------0--2--3--5-|
E|-1--------------------------3-|

E|------------------------------|
B|------------------------------|
G|-------------------2--4--5----|
D|-3-----------------2--4--5--5-|
A|-3-----------------0--2--3--5-|
E|-1--------------------------3-|

E|------------------------------|
B|------------------------------|
G|-------------------2--4--5----|
D|-3-----------------2--4--5--5-|
A|-3-----------------0--2--3--5-|
E|-1--------------------------3-|

E|------------------------------|
B|------------------------------|
G|-------------------2--4--5----|
D|-3-----------------2--4--5--5-|
A|-3-----------------0--2--3--5-|
E|-1--------------------------3-|

E|------------------------------|
B|------------------------------|
G|------------------------------|
D|------------------------------|
A|------------------------------|
E|------------------------------|

E|------------------------------|
B|------------------------------|
G|------------------------------|
D|------------------------------|
A|------------------------------|
E|------------------------------|

E|------------------------------|
B|------------------------------|
G|--------------2----2--4--5----|
D|-3----5--5----2----2--4--5--5-|
A|-3----5--5----0----0--2--3--5-|
E|-1----3--3------------------3-|

E|------------------------------|
B|------------------------------|
G|--------------2----2--4--5----|
D|-3----5--5----2----2--4--5--5-|
A|-3----5--5----0----0--2--3--5-|
E|-1----3--3------------------3-|

E|------------------------------|
B|------------------------------|
G|--------------2----2--4--5----|
D|-3----5--5----2----2--4--5--5-|
A|-3----5--5----0----0--2--3--5-|
E|-1----3--3------------------3-|

E|------------------------------|
B|------------------------------|
G|--------------2----2--4--5----|
D|-3----5--5----2----2--4--5--5-|
A|-3----5--5----0----0--2--3--5-|
E|-1----3--3------------------3-|

E|------------------------------|
B|------------------------------|
G|--------------2----2--4--5----|
D|-3----5--5----2----2--4--5--5-|
A|-3----5--5----0----0--2--3--5-|
E|-1----3--3------------------3-|

E|------------------------------|
B|------------------------------|
G|--------------2----2--4--5----|
D|-3----5--5----2----2--4--5--5-|
A|-3----5--5----0----0--2--3--5-|
E|-1----3--3------------------3-|

E|------------------------------|
B|------------------------------|
G|--------------2----2--4--5----|
D|-3----5--5----2----2--4--5--5-|
A|-3----5--5----0----0--2--3--5-|
E|-1----3--3------------------3-|

E|------------------------------|
B|------------------------------|
G|--------------2----2--4--5----|
D|-3----5--5----2----2--4--5--5-|
A|-3----5--5----0----0--2--3--5-|
E|-1----3--3------------------3-|

E|------------------------------|
B|------------------------------|
G|--------------2----2--4--5----|
D|-3----5--5----2----2--4--5--5-|
A|-3----5--5----0----0--2--3--5-|
E|-1----3--3------------------3-|

E|------------------------------|
B|------------------------------|
G|--------------2----2--4--5----|
D|-3----5--5----2----2--4--5--5-|
A|-3----5--5----0----0--2--3--5-|
E|-1----3--3------------------3-|

E|------------------------------|
B|------------------------------|
G|--------------2----2--4--5----|
D|-3----5--5----2----2--4--5--5-|
A|-3----5--5----0----0--2--3--5-|
E|-1----3--3------------------3-|

E|------------------------------|
B|------------------------------|
G|--------------2----2--4--5----|
D|-3----5--5----2----2--4--5--5-|
A|-3----5--5----0----0--2--3--5-|
E|-1----3--3------------------3-|

E|------------------------------|
B|------------------------------|
G|--------------2----2--4--5----|
D|-3----5--5----2----2--4--5--5-|
A|-3----5--5----0----0--2--3--5-|
E|-1----3--3------------------3-|

E|------------------------------|
B|------------------------------|
G|--------------2----2--4--5----|
D|-3----5--5----2----2--4--5--5-|
A|-3----5--5----0----0--2--3--5-|
E|-1----3--3------------------3-|

E|------------------------------|
B|------------------------------|
G|--------------2----2--4--5----|
D|-3----5--5----2----2--4--5--5-|
A|-3----5--5----0----0--2--3--5-|
E|-1----3--3------------------3-|

E|------------------------------|
B|------------------------------|
G|--------------2----2--4--5----|
D|-3----5--5----2----2--4--5--5-|
A|-3----5--5----0----0--2--3--5-|
E|-1----3--3------------------3-|

E|------------------------------|
B|------------------------------|
G|--------------2----2--4--5----|
D|-3----5--5----2----2--4--5--5-|
A|-3----5--5----0----0--2--3--5-|
E|-1----3--3------------------3-|

E|------------------------------|
B|------------------------------|
G|------------------------------|
D|------------------------------|
A|------------------------------|
E|------------------------------|

E|------------------------------|
B|------------------------------|
G|------------------------------|
D|------------------------------|
A|------------------------------|
E|------------------------------|

E|------------------------------|
B|------------------------------|
G|------------------------------|
D|------------------------------|
A|------------------------------|
E|------------------------------|

E|------------------------------|
B|------------------------------|
G|-------------------2--4--5----|
D|-3-----------------2--4--5--5-|
A|-3-----------------0--2--3--5-|
E|-1--------------------------3-|

E|------------------------------|
B|------------------------------|
G|-------------------2--4--5----|
D|-3-----------------2--4--5--5-|
A|-3-----------------0--2--3--5-|
E|-1--------------------------3-|

E|------------------------------|
B|------------------------------|
G|-------------------2--4--5----|
D|-3-----------------2--4--5--5-|
A|-3-----------------0--2--3--5-|
E|-1--------------------------3-|

E|------------------------------|
B|------------------------------|
G|-------------------2--4--5----|
D|-3-----------------2--4--5--5-|
A|-3-----------------0--2--3--5-|
E|-1--------------------------3-|

E|------------------------------|
B|------------------------------|
G|--------------2----2--4--5----|
D|-3----5--5----2----2--4--5--5-|
A|-3----5--5----0----0--2--3--5-|
E|-1----3--3------------------3-|

E|------------------------------|
B|------------------------------|
G|-------------------2--4--5----|
D|-3-----------------2--4--5--5-|
A|-3-----------------0--2--3--5-|
E|-1--------------------------3-|

E|------------------------------|
B|------------------------------|
G|-------------------2--4--5----|
D|-3-----------------2--4--5--5-|
A|-3-----------------0--2--3--5-|
E|-1--------------------------3-|

E|------------------------------|
B|------------------------------|
G|-------------------2--4--5----|
D|-3-----------------2--4--5--5-|
A|-3-----------------0--2--3--5-|
E|-1--------------------------3-|

E|------------------------------|
B|------------------------------|
G|-------------------2--4--5----|
D|-3-----------------2--4--5--5-|
A|-3-----------------0--2--3--5-|
E|-1--------------------------3-|

E|------------------------------|
B|------------------------------|
G|--------------2----2--4--5----|
D|-3----5--5----2----2--4--5--5-|
A|-3----5--5----0----0--2--3--5-|
E|-1----3--3------------------3-|

E|------------------------------|
B|------------------------------|
G|--------------2----2--4--5----|
D|-3----5--5----2----2--4--5--5-|
A|-3----5--5----0----0--2--3--5-|
E|-1----3--3------------------3-|

E|------------------------------|
B|------------------------------|
G|--------------2----2--4--5----|
D|-3----5--5----2----2--4--5--5-|
A|-3----5--5----0----0--2--3--5-|
E|-1----3--3------------------3-|

E|------------------------------|
B|------------------------------|
G|--------------2----2--4--5----|
D|-3----5--5----2----2--4--5--5-|
A|-3----5--5----0----0--2--3--5-|
E|-1----3--3------------------3-|

E|------------------------------|
B|------------------------------|
G|--------------2----2--4--5----|
D|-3----5--5----2----2--4--5--5-|
A|-3----5--5----0----0--2--3--5-|
E|-1----3--3------------------3-|

E|------------------------------|
B|------------------------------|
G|--------------2----2--4--5----|
D|-3----5--5----2----2--4--5--5-|
A|-3----5--5----0----0--2--3--5-|
E|-1----3--3------------------3-|

E|------------------------------|
B|------------------------------|
G|-------------------2--4--5----|
D|-3-----------------2--4--5--5-|
A|-3-----------------0--2--3--5-|
E|-1--------------------------3-|

E|------------------------------|
B|------------------------------|
G|-------------------2--4--5----|
D|-3-----------------2--4--5--5-|
A|-3-----------------0--2--3--5-|
E|-1--------------------------3-|

E|------------------------------|
B|------------------------------|
G|--------------2----2--4--5----|
D|-3----5--5----2----2--4--5--5-|
A|-3----5--5----0----0--2--3--5-|
E|-1----3--3------------------3-|

E|------------------------------|
B|------------------------------|
G|--------------2----2--4--5----|
D|-3----5--5----2----2--4--5--5-|
A|-3----5--5----0----0--2--3--5-|
E|-1----3--3------------------3-|

E|------------------------------|
B|------------------------------|
G|--------------2----2--4--5----|
D|-3----5--5----2----2--4--5--5-|
A|-3----5--5----0----0--2--3--5-|
E|-1----3--3------------------3-|

E|------------------------------|
B|------------------------------|
G|--------------2----2--4--5----|
D|-3----5--5----2----2--4--5--5-|
A|-3----5--5----0----0--2--3--5-|
E|-1----3--3------------------3-|

E|------------------------------|
B|------------------------------|
G|-------------------2--4--5----|
D|-3-----------------2--4--5--5-|
A|-3-----------------0--2--3--5-|
E|-1--------------------------3-|

E|------------------------------|
B|------------------------------|
G|-------------------2--4--5----|
D|-3-----------------2--4--5--5-|
A|-3-----------------0--2--3--5-|
E|-1--------------------------3-|

E|------------------------------|
B|------------------------------|
G|-------------------2--4--5----|
D|-3-----------------2--4--5--5-|
A|-3-----------------0--2--3--5-|
E|-1--------------------------3-|

E|------------------------------|
B|------------------------------|
G|-------------------2--4--5----|
D|-3-----------------2--4--5--5-|
A|-3-----------------0--2--3--5-|
E|-1--------------------------3-|

E|------------------------------|
B|------------------------------|
G|-------------------2--4--5----|
D|-3-----------------2--4--5--5-|
A|-3-----------------0--2--3--5-|
E|-1--------------------------3-|

E|------------------------------|
B|------------------------------|
G|-------------------2--4--5----|
D|-3-----------------2--4--5--5-|
A|-3-----------------0--2--3--5-|
E|-1--------------------------3-|

E|------------------------------|
B|------------------------------|
G|-------------------2--4--5----|
D|-3-----------------2--4--5--5-|
A|-3-----------------0--2--3--5-|
E|-1--------------------------3-|

Then the music has faded away.
Página 1 / 1

Letras e título
Acordes e artista

resetar configurações
OK