Cifra Club

And The Battle Begun

Rx Bandits

Tab de baixo: Principal
Tabbed By: Alex Z.

Intro:
G-------------------------------------------|
D-------------------------------------------|
A-6>-(strum until 32 seconds in)-3>-6>>-3>--|
E-------------------------------------------|

G--------------------|
D--------------------|
A-----------66666666-|
E-4444-6666----------| (x3)

G-------------------|
D-------------------|
A-------------------|
E-4444-6666-8>>>>---|

rest a few measures

main verse:
G-------------------------------------|
D-------------------------------------|
A-3333-5555-6666------3333-5555-66----|
E----------------3333--------------33-| (a few times)

Pre-chorus:
G-----------------------------|
D-----------------------------|
A--------------------22222222-|
E-1111--3333--4444------------| back to main verse and play prechorus again

Chorus:
G---------------                            G-------------------|
D-----------1---                            D-------------------|
A-33-11-3---3--rest a beat and repeat twice A-3333333333333333--|
E---------------                            E-------------------|

G--------------------------------|
D--------------------------------|
A---------------------------1--2-|
E-4444444444444444---1--3--------| Chorus (x2) back to main verse

quick bridge riff
G---------------------11-|
D---9/11/9---------11----|
A-9--------12-11-9-------|
E------------------------|

Bridge:
G---------------13/14/13-11-9--9/11/9----9--------------------|
D---------9-11------------------------11----11-9/11/9----9----|
A-9-11-12---------------------------------------------12---12-|
E-------------------------------------------------------------| (x8)

G-----------------------9--------------11-9-----------9---|
D---------9-11------------11----------------------------9-|
A-9-11-12-------9-11-12-------9-11-12--------9-11-12------|
E---------------------------------------------------------| (x2)

G-----------------------------------------------|
D-------------------2-----------4-2---------2---|
A-------2-4-----------4-----------------------2-|
E-2-4-5------2-4-5--------2-4-5------2-4-5------| (x3)

G-----------|
D-----------|
A-2-2----2--|
E-----------|

G-----------------|
D-----------------|
A-------------4>>-|
E-2>>-0>>-5>>-----| (x2)

G-------------------------------------------|
D------------------3----------5-3-------3---|
A-------3-5----------5--------------------3-|
E-3-5-6------3-5-6------3-5-6-----3-5-6-----|

G---------------------------------------|
D-------------------3----------5-3------|rest
A-------3-5-----------5-----------------|
E-3-5-6------3-5-6------3-5-6-----------|

G---------------------------------|
D---------------------------------|
A-3>>>>----------------------1--2-|
E-------4~-4~-4~-4~---1-3---------| play chorus

ending:
G-----------------------------|
D-----------------------------|
A---------1--2---22222---3-3--|
E-1--3------------------------|
Composição de Issa / Matt Embree
307 exibições

0 comentários

Ver todos os comentários

Conseguiu tocar?

0 Tocaram 0 Ainda não

Grave um vídeo tocando And The Battle Begun e nos envie!

00:00 / 00:00
Outros vídeos desta música
Repetir Qualidade Automático
Outros vídeos desta música
00:00 / 00:00
Automático

Cifra Club Pro

Aproveite o Cifra Club com benefícios exclusivos e sem anúncios
Cifra Club Pro
Aproveite o Cifra Club com benefícios exclusivos e sem anúncios
OK