Canão Foi Tão Bom (part. DBS, Negra Li, Lakers, Instituto e Ganjaman)

Sabotage

tom: Bb
[Primeira parte]

E|------------------------------------|
B|------13--11--------------13--11----|
G|------12--12----12--------12--12----|
D|-10------------------10-------------|
A|------------------------------------|
E|------------------------------------|

[Refrão]

E|------------------------------------|
B|-------10-11-------------10-11------|
G|--12---------12---12-12---------12--|
D|------------------------------------|
A|------------------------------------|
E|------------------------------------|

[Segunda parte]

E|------------------------------------|
B|-10--11------10------------13--11---|
G|----------12--------12------12--12--|
D|-----------------------10-----------|
A|------------------------------------|
E|------------------------------------|
Página 1 / 1

Letras e título
Acordes e artista

resetar configurações
OK