Não Temas, Sou Eu

Samuel Mariano

Composição: Samuel Mariano
Tom: C
Intro: G#  Fm7  G4 ( ou G/C ) G C

Solo Intro

E|--------------------------------------10~~----7-8~~|
B|-9-11-13-11-9--/4-8--6--5-/8~~---5-6---------------|
G|---------------------------------------------------|
D|---------------------------------------------------|
A|---------------------------------------------------|
E|---------------------------------------------------|

Riff Refrão
E|---------------------------------------------------|
B|---------------------------------------------------|
G|---4-2---------------------------------------------|
D|-2-----2-0--0--------------------------------------|
A|--------------3-2----------------------------------|
E|---------------------------------------------------|

 C
Um dia os discípulos entraram no mar
 G/B
A ordem de Jesus foi para atravessar
    Dm
Enquanto Ele ia falar com pai em oração
  G4             G
Mas antes de seguir foi despedir a multidão
 C
O barco já estava no meio do mar
 G/B
Jesus no seu cantinho não pára de orar
 Dm
O vento era contrário à embarcação
  G                    F G
Discípulos cansados com o remo na mão

  G#               Bb
Mas algo sobrenatural iria acontecer
 Cm                     Bb
Jesus ia mostrar o seu grande poder
  G#             Fm
"Parece um fantasma" os discípulos pensaram
  G                   F G
Ficaram espantados quando observaram
   G#                  Bb
Pois era ele quem vinha no meio do mar
 Cm                 Bb
A cena é bonita dá pra imaginar
  G#               Fm
Não tinha barco nem navio para o conduzir
 G4
Imaginando a cena ela deve ter sido assim

 C              Em
Lá vem Jesus andando por cima do mar
F
Tá na água mas parece no asfalto andar
G
Não afunda, não balança, não tem medo, 
   C           G
Ele anda porque sabe andar
C                     Em
Discípulos atônitos sem nada entender
F
Parece um fantasma, uma miragem, deve ser
G                         C     G
Jesus se aproxima dos discípulos e começa a dizer

        C          Am    Dm
Não temas sou eu, não temas sou eu, não temas
 G4                 C/E    G
Eu tenho o controle da situação
   G/B   C           Am    Dm
Não temas sou eu, não temas sou eu, não temas
G                      C
O controle do vento e das águas estão em minhas mãos
Página 1 / 1

Letras e título
Acordes e artista

resetar configurações
OK