Cifra Club

Preciso Te Falar

San Marino

Cifra: Principal (violão e guitarra)
exibições 51.479
Tom: A
[Intro] D  A  E  D  A

[Solo]

E|--------------------2--------------------------5----------------------|
B|------3/5--3--2--3---3-----3---5/7--5---3---5----5--------------------|
G|----2-----------------------------------------------------------------|
D|----------------------------------------------------------------------|
A|----------------------------------------------------------------------|
E|----------------------------------------------------------------------|

A                   E
  Preciso te falar
     D                    A
  Será que você tem um tempo?
                   E
  Quero falar de amor
              D                   A
  Coisas que não se apagam com o vento

[Base] E

[Solo]

E|------5/7--5---3--5--------------|
B|---------------------------------|
G|---------------------------------|
D|---------------------------------|
A|---------------------------------|
E|---------------------------------|

    A
  Amor,eu já tenho chorado
                            A
  O coração,eu sei tá machucado
     A                                E
  Será que você não tem um tempo pra mim...
   D                                      A
  Quando vem a solidão,é teu nome que eu chamo
                    E
  É por você que reclamo
      D                    A
  E você nem vem pra me escutar

 ( E )

      D                                     A
  Se não ligo pra você,diz que tô te esquecendo
                     E
  Amor,eu estou sofrendo
          D          A          A
  Senta aqui,vamos conversar

A                   E
  Preciso te falar
     D                    A
  Será que você tem um tempo?
                   E
  Quero falar de amor
              D                   A
  Coisas que não se apagam com o vento
Acordes para:
    Composição: San MarinoColaboração e revisão:
    • Rafael Moreira
    • Daniel Loro
    • Elison Rosa

    0 comentários

      mostrar mais comentários

      Conseguiu tocar?

      2tocaram0ainda não

      Grave um vídeo tocando Preciso Te Falar e mande pra gente!

      00:00 / 00:00
      outros vídeos desta música
      repetirqualidadeAutomático
      Outro vídeos desta música
        00:00 / 00:00
        OK