Cifra Club

Retratos e Canções

Sandra de Sá

Cifra: Versão 3 (violão e guitarra)
tom: Eb
E|--------------|--------------|--------------|--------------|---------------|
B|--------------|--------------|--------------|--------------|---------------|
G|--------------|--------------|--------------|--------------|---------------|
D|--------------|--------------|--------------|--------------|-3-----------3-|
A|--------------|--------------|--------------|--------------|---------------|
E|--------------|--------------|--------------|--------------|---------------|

E|--------------|---------------|--------------|---------------|--------------|
B|--------------|---------------|--------------|---------------|--------------|
G|--------------|---------------|--------------|---------------|--------------|
D|-----3----3---|-1-------3-3-1-|-----3----1---|-3-----------3-|-----3----1---|
A|--------------|---------------|--------------|---------------|--------------|
E|--------------|---------------|--------------|---------------|--------------|

E|--------------|---------------|---------------|--------------|-----------------|
B|--------------|---------------|---------------|--------------|-----------------|
G|--------------|-------1-------|---------------|--------------|-----------------|
D|-3----3-------|---1-3-------3-|-3-----------3-|-----3----1---|-3----3------3-3-|
A|--------------|-3-------------|---------------|--------------|-----------------|
E|--------------|---------------|---------------|--------------|-----------------|

E|--------------|--------------|--------------|--------------|--------------|
B|--------------|--------------|--------------|--------------|--------------|
G|--------------|--------------|--------------|--------------|--------------|
D|-1---3--------|--------------|--------------|--------------|--------------|
A|--------------|--------------|--------------|--------------|--------------|
E|----------11--|--------------|--------------|--------------|--------------|

Composição de Michael Sullivan / Paulo Massadas
Colaboração e revisão:
  • Helon Oliveira
3.084 exibições
    • ½ Tom
    • A
    • Bb
    • B
    • C
    • Db
    • D
    • Eb
    • E
    • F
    • F#
    • G
    • Ab
  • Adicionar à lista

    0 comentários

    Ver todos os comentários

    Conseguiu tocar?

    1 Tocaram 0 Ainda não

    Grave um vídeo tocando Retratos e Canções e nos envie!

    00:00 / 00:00
    Outros vídeos desta música
    Repetir Qualidade Automático
    Outros vídeos desta música
    00:00 / 00:00
    Automático

    Cifra Club Pro

    Aproveite o Cifra Club com benefícios exclusivos e sem anúncios
    Cifra Club Pro
    Aproveite o Cifra Club com benefícios exclusivos e sem anúncios
    OK