Tente Outra Vez

Sandra de Sá

Composição de: Marcelo Motta / Paulo Coelho / Raul Seixas
tom: C
Intro: E

E|-----------------------------------------------------------|
B|-------8--9--8--9-9B~~-------------------------------------|
G|----9------------------------------------------------------|
D|-----------------------------------------------------------|
A|-----------------------------------------------------------|
E|-----------------------------------------------------------|

 A    C                              G      D
Veja, não diga que a canção está perdida.
                              A     A4 A
Tenha fé em Deus, tenha fé na vida.
C     G/B  Am7 G
Tente ou...tra vez.
       Bm       E
E|-----------------------------------------------------------|
B|-----7--5--7--5h7--5~--------------------------------------|
G|-----------------------------------------------------------|
D|-----------------------------------------------------------|
A|-----------------------------------------------------------|
E|-----------------------------------------------------------|

A          C                              G                  D
Beba (beba), pois a água viva ainda ta na fonte (tente outra vez)

E|-----15--12------------------------------------------------|
B|-------------15--12-----15h17-15h17-15h17-15h17--15~-------|
G|-----------------------------------------------------------|
D|-----------------------------------------------------------|
A|-----------------------------------------------------------|
E|-----------------------------------------------------------|
                                 A
Você tem dois pés para cruzar a ponte.
C  G/B Am7 G                G7
Nada aca...bou, não, não, não, oh, oh, oh, oh!

E|----------------19b-19b-19b-19b-19~------------------------|
B|-----12p10--12---------------------------------------------|
G|-----------------------------------------------------------|
D|-----------------------------------------------------------|
A|-----------------------------------------------------------|
E|-----------------------------------------------------------|

C                                             Bm
Tente, levante sua mão sedenta e recomece a andar.
    C                                    G
Não pense que a cabeça agüenta se você parar.
                           D
Não, não, não, não, não, não
                C                    D
Há uma voz que canta, há uma voz que dança,
            F                       G     Dm  E
uma voz que gira (gira) bailando no ar.

E|------22b--22--19------------------------------------------|
B|-------------------20b-------------------------------------|
G|---------------------------------------------------16b-16b-|
D|----------------------------14h16-14h16~-14h16-14----------|
A|-----------------------------------------------------------|
E|-----------------------------------------------------------|

A               C                                G      D
Queira (queira), basta ser sincero e desejar profundo.
                             A
Você será capaz de sacudir o mundo.

E|-----------------------------------------------------------|
B|-----------------------------------------------------------|
G|------------------13--13b----------------------------------|
D|------11--9--11--------------------------------------------|
A|-----------------------------------------------------------|
E|-----------------------------------------------------------|

    C     G/B  Am7  G
Vai, tente ou...tra vez.
A             C                                 G      D
Tente, (tente) e não diga que a vitória está perdida

E|-------------------12--15b~--------------------------------|
B|------12--15--15b------------------------------------------|
G|-----------------------------------------------------------|
D|-----------------------------------------------------------|
A|-----------------------------------------------------------|
E|-----------------------------------------------------------|
D                              A   
Se é de batalhas que se vive a vida

E|-----------------------------------------------------------|
B|-----------------------------------------------------------|
G|-----------------------------------------------------------|
D|-------9h10--9h10--9h10------------------------------------|
A|--------------------------12~~~~---------------------------|
E|-----------------------------------------------------------|

  C   G/B  Am7  G
tente ou...tra vez.
Página 1 / 1

Letras e título
Acordes e artista

resetar configurações
OK