Cifra Club

Black Magic Woman

Santana

Cifra: Principal (violão e guitarra)
tom: Am
[Intro]

E|------------------------------------------|
B|-13h15----13h15----12h15--13h15----13h15--|
G|-------14-------14--------------14--------|
D|------------------------------------------|
A|------------------------------------------|
E|------------------------------------------|

E|------------------------------------------|
B|-13h15----13h15----12h15--13h15----13h15--|
G|-------14-------14--------------14--------|
D|------------------------------------------|
A|------------------------------------------|
E|------------------------------------------|

E|----------------------------------------|
B|-8p6------------------6h8p6-----8-------|
G|---------7b9b7---------------------9b7--|
D|----------------------------------------|
A|----------------------------------------|
E|----------------------------------------|

E|-5---------------3-----------------5--------------3----------------10-|
B|-----8---6\5---------6---5\3----------8---6\5---------6---5\3-----10--|
G|-----------------------------------------------------------------10---|
D|----------------------------------------------------------------12----|
A|---------------------------------------------------------------12-----|
E|--------------------------------------------------------------10------|

[Solo]

E|------------------------------------------------------------------|
B|-15-13-15b13-10-13b15--b13p10------13b15---15b13p10---------------|
G|----------------------------------------------------12-14b12p10-9-|
D|------------------------------------------------------------------|
A|------------------------------------------------------------------|
E|------------------------------------------------------------------|

E|-------12h13-12-13p12p10---------------------------10-------------------|
B|-10-13-------------------13b15--15b13-10----13b15-----13-10-------------|
G|------------------------------------------------------------12b14b12-10-|
D|------------------------------------------------------------------------|
A|------------------------------------------------------------------------|
E|------------------------------------------------------------------------|

E|-------10-13-13b15-----15b17---b15----13-----18b20-\--|
B|----11-----------------------------15-----------------|
G|-12---------------------------------------------------|
D|------------------------------------------------------|
A|------------------------------------------------------|
E|------------------------------------------------------|

E|-10----------------------------------------------------------10\---|
B|-----------------10------------------------------------------10\---|
G|-----14b12p10-12----12--10h12p10-----------------------------10\---|
D|---------------------------------12-10--12-10----------------------|
A|----------------------------------------------12-11-10\8h10--------|
E|-------------------------------------------------------------------|

                       Dm
Got a black magic woman
                     Am
Got a black magic woman
        Dm                                         Gm
I gotta black magic woman, got me so blind I can't see

E|----------------------|
B|-----------6--5--3----|
G|-3h5p3-----5--5--3----|
D|----------------------|
A|----------------------|
E|----------------------|

             Dm                 Am                                Dm
That she's a black magic woman, tryin' to make a devil out of me

                                Dm
Don't turn your back on me baby

E|-10-10-10-----------10-10----|
B|-10-10-10--8/10-----10-10----|
G|-10-10-10--9/10-----10-10----|
D|-----------------------------|
A|-----------------------------|
E|-----------------------------|

                              Am
Don't turn you back on me baby
                     Dm                                               Gm
Yes, don't turn your back one me baby, start messin' 'round with your tricks

E|----------------------|
B|-----------6--5--3----|
G|-3h5p3-----5--5--3----|
D|----------------------|
A|----------------------|
E|----------------------|

                Dm                   Am                               Dm
Don't turn your back on me baby, you just might pick up my magic sticks

[Solo]

E|------------------------------13p12p10----------------------|
B|-13b15--15-13---15b13-10---------------13p12p10-------------|
G|------------------------------------------------13p12p10-9--|
D|------------------------------------------------------------|
A|------------------------------------------------------------|
E|------------------------------------------------------------|

E|------------12h13p12p10----------13b15----15b17b15p13-15b17b15-13---18b20\-|
B|------10-13-------------13b15----------------------------------------------|
G|-9h10----------------------------------------------------------------------|
D|---------------------------------------------------------------------------|
A|---------------------------------------------------------------------------|
E|---------------------------------------------------------------------------|

E|-12h13p12p10-12h13p12p10----------------------------------------------------|
B|-------------------------13b15-15-13-10-------------10----10-13-10----------|
G|----------------------------------------14b12p10----10-------------14b12p10-|
D|-------------------------------------------------12----12-------------------|
A|----------------------------------------------------------------------------|
E|----------------------------------------------------------------------------|

E|-------------------------------------------10-----------------------|
B|-13b15--15b17--13b15---------------13b15------13-10-----------------|
G|----------------------14b12b14----------------------12--14b12p10-9--|
D|--------------------------------------------------------------------|
A|--------------------------------------------------------------------|
E|--------------------------------------------------------------------|

E|------------------------------10-----------------10-12-13b15-|
B|-10-13-b-15--13b15-15b13p10---10--10----------11-------------|
G|----------------------------------10-10----12----------------|
D|-------------------------------------------------------------|
A|-------------------------------------------------------------|
E|-------------------------------------------------------------|

E|-15b17---18b20---20b22-22-------------10---------10---------10-|
B|---------------------------10~-----13------10-13------10-13----|
G|---------------------------------------------------------------|
D|---------------------------------------------------------------|
A|---------------------------------------------------------------|
E|---------------------------------------------------------------|

E|-13p10--13p10-13p10------------------------------------------------------|
B|--------------------13p10-13p10------------------------------------------|
G|--------------------------------10p12-10p12-------------------------9h10-|
D|--------------------------------------------12-10-------------10h12------|
A|-----------------------------------------------------10h11h12------------|
E|-------------------------------------------------------------------------|

E|------------------------------|
B|-----------------------10p8---|
G|----------------9-10--------9-|
D|----------10h12---------------|
A|-10h11h12---------------------|
E|------------------------------|

                         Dm
Got your spell on me baby
                         Am
Got your spell on me baby
                  Dm                                      G
Yes, you got your spell on me baby, turnin' my heart into stone

E|----------------------|
B|-----------6--5--3----|
G|-3h5p3-----5--5--3----|
D|----------------------|
A|----------------------|
E|----------------------|

  Dm                     Am                           Dm
I need you so bad, magic woman I can't leave you alone

E|-------------------------------------------------|
B|-8p6------------------6h8p6-----8----------------|
G|---------7b9b7---------------------9b7-----------|
D|-------------------------------------------------|
A|-------------------------------------------------|
E|-------------------------------------------------|

[Intro]

E|-------------------------------------2--------------|
B|-------------------------------------3--------------|
G|-------------------------------------2--------------|
D|-0-----0-----0-----0-----0-----0-----0--------------|
A|----0-----0-----0-----0-----0-----0-----------------|
E|----------------------------------------------------|

E|-2h3p2-----2-----2h3p2-----2-------0-2/5-----2h3p2p0---2---|
B|--------3--3------------3--3-----3-------------------3-3---|
G|-----------2---------------2---------------------------2---|
D|-----------0---------------0---------------------------0---|
A|-----------------------------------------------------------|
E|-----------------------------------------------------------|

E|-------------------------------------2-----2/---|
B|---3---1-1-1-1-----------------------3----------|
G|-2---2---------0h2-----0-0-----------2----------|
D|----------------------------4-4p2p0--0----------|
A|------------------------------------------------|
E|------------------------------------------------|

E|-10----10----------------10----10----------10----10---------------|
B|----13------13b15b13p10-----13----------------13------13b15b13p10-|
G|----------------------------------14b12p10------------------------|
D|------------------------------------------------------------------|
A|------------------------------------------------------------------|
E|------------------------------------------------------------------|

E|-10----10---------------------------------15------15-b-17----14p10----|
B|----13-------------------------------------------------------------15-|
G|----------14b12p10----------9-----------------------------------------|
D|--------------------12-10-----10-10h12--------------------------------|
A|----------------------------------------------------------------------|
E|----------------------------------------------------------------------|

E|-22--22-22-22-22-22-22-22-22-22-22---22--22-22-22-22-22-22-22-22-22-22-|
B|-----------------------------------------------------------------------|
G|-----------------------------------------------------------------------|
D|-----------------------------------------------------------------------|
A|-----------------------------------------------------------------------|
E|-----------------------------------------------------------------------|

E|-2-----2-----2------0---3---0--2----0---3---0--2----0---3---0--2---|
B|-3-----3-----3------1---3---2--3----1---3---2--3----1---3---2--3---|
G|-2-----2-----2------0---0---2--2----0---0---2--2----0---0---2--2---|
D|-0-----0-----0------0---0---2--2----0---0---2--2----0---0---2--2---|
A|--------------------3---2---0-------3---2---0-------3---2---0------|
E|------------------------3---------------3---------------3----------|

E|-------------------------------------------------------------------------|
B|-------------------------------------------------------------------------|
G|-------------------------------------------------------------------------|
D|-------------------------------------------------------------------------|
A|-5--0-3-5--0-7-5--0-3-5--0-7-5--0-3-5--0-7-5--0-3-5--0-7-5--0-3-5--0-7-5-|
E|-------------------------------------------------------------------------|

E|--------------------------------------0--3--0----------------|
B|--------------------------------------1--3--2----------------|
G|--------------------------------------0--0--2----------------|
D|--------------------------------------2--0--2----------------|
A|-0-3-5--0-7-5--0-3-5--0-7-5--0-3-5----3--2--0----------------|
E|-----------------------------------------3-------------------|
Composição de Peter Green
Colaboração e revisão:
  • Lucas Alves
  • João Vilela
  • Jose_Geraldo
24.408 exibições
    • ½ Tom
    • Am
    • Bbm
    • Bm
    • Cm
    • C#m
    • Dm
    • Ebm
    • Em
    • Fm
    • F#m
    • Gm
    • G#m
  • Adicionar à lista

    0 comentários

    Ver todos os comentários

    Conseguiu tocar?

    2 Tocaram 2 Ainda não

    Grave um vídeo tocando Black Magic Woman e nos envie!

    00:00 / 00:00
    Outros vídeos desta música
    Repetir Qualidade Automático
    Outros vídeos desta música
    00:00 / 00:00
    Automático

    Cifra Club Pro

    Aproveite o Cifra Club com benefícios exclusivos e sem anúncios
    Cifra Club Pro
    Aproveite o Cifra Club com benefícios exclusivos e sem anúncios
    OK