Lágrimas de dolor

Saratoga

Composição de: Leo Jiménez y Jerónimo Ramiro
tom: Cm
E|----------2-2-2-2...| 1-1-1-1...
acordes:Pre-coro(acá es lento)
E|----8^----8^-----3^----3^----3^-----8^----8^---------------|
5)6-6-6-6-6-6--1-1-1-1-1-1-1-1-1--6-6-6-6-6-6------3^-----4^-
E|---------------------------------------------1-1-1--2-2-2--|

E|----8^----8^-----3^----3^----3^-----8^----8^------------|
5)6-6-6-6-6-6--1-1-1-1-1-1-1-1-1--6-6-6-6-6-6------3^-----4^-----6^...
E|---------------------------------------------1-1-1--2-2-2--|4-4-4....
acordes:coro
4)3-----3...          8-----8
5)1-1-1-1...4-----4...6-6-6-6...-----8------6...
E|----------2-2-2-2...| -6-6-6--4-4-4...
bueno acá les dejo lo que todo mundo esta buscando el solo
pero todo el crédito es de mi pata timo que se saco el ancho
para sacar el solo ustedes ya lo acoplan es un poco yuka
pero ahí les va:
solo:
E|------------------------|
B|--------------------6-5-|
G|----------------5-4-----|
D|---------3-2-5-6--------|
A|------3-2---------------|
E|-1-3-5------------------|

E|---------------------------------------------------|
B|---------13-12---------12----------17-13--15-13----|
G|--14vr--------12--12-14--14-12--12------14------12-|
D|-------14-------14------------14-------------------|
A|---------------------------------------------------|
E|---------------------------------------------------|

E|----------------12-16-15-------16^-|
B|-12-----12-13-15--------15-13------|
G|---13-14---------------------14----|
D|-----------------------------------|
A|-----------------------------------|
E|-----------------------------------|

E|------------------------------------------|
B|-----15-15h16vbr-15h16p15-----------15----|
G|---13-------------------------15-16---15--|
D|-12-------------------------17------------|
A|--------------------------17--------------|
E|------------------------------------------|

E|-------------------------------------------------|
B|-16----------------------------------------------|
G|---17------------------15^-----------------------|
D|-----17-13--15-13-15vbr---15vbr-15-13-15^-15-13--|
A|-----------------------------------------------15|
E|-------------------------------------------------|

E|-----------------------------------------|
B|------15h16----------16-18^-18-16-18vbr--|
G|-15-17------17vbr--17--------------------|
D|-----------------------------------------|
A|-----------------------------------------|
E|-----------------------------------------|

aca es un poco rapido

E|-------------------------8-------------------|
B|--------------11-----------9-----------------|
G|------------10--10-----------10--8-----------|
D|--------8-11------11-8-------------8-6-8vbr--|
A|-------8---------------9---------------------|
E|--6-8-9--------------------------------------|

E|-------------------------------------------18vbr-|
B|-------------------------------14-18-14----------|
G|-------------------15-------15----------15-------|
D|-----8-----------15--15---15---------------------|
A|----8--8---13-16--------16-----------------------|
E|-6-9-----9---------------------------------------|

se repite el inicio del solo y para el final tambien
el inicio del solo se repite 2 veces

el final le metes esto

E|---------------------------|
B|---------------------------|
G|---------------------------|
D|-3---3vbr-------1-3-1h3p1--|
A|-1--------1-3-4------------|
E|---------------------------| ¡NO A A  GUERRA!!!
Página 1 / 1

Letras e título
Acordes e artista

resetar configurações
OK