Perro Traidor

Saratoga

Composição de: Jerónimo ramiro
tom: Em
Intro

E|---------------------------------------------------------------------|
B|---------------------------------------------------------------------|
G|---------------------------------------------------------------------|
D|---------------------------------------------------------------------|
A|------------------------------------------2-2-2--2-2-2--2-3-5--3-2-0-|
E|--20^^/0------0-0-0--0-0-0--0-2-3--5-3-2-----------------------------|

E|---------------------------------------------------------------------|
B|---------------------------------------------------------------------|
G|---------------------------------------------------------------------|
D|---5-----7--5--------------------------------------------------------|
A|---3--5--5--3-----------------------------2-2-2--2-2-2--2-3-5--3-2-0-|
E|------3-------0-0-0--0-0-0--0-2-3--5-3-2-----------------------------|

E|-----------------------------------------------------|
B|-----------------------------------------------------|
G|-----------------------------------------------------|
D|--5-----7--5---------5--4-----5----------------------|
A|--3--5--5--3---2--5--3--2--2--3----------------------|
E|-----3---------0--3--------0-------------------------|

E|----------------------------------------------------------------|
B|----------------------------------------------------------------|
G|----------------------------------------------------------------|
D|----------------------------------------------------------------|
A|--5-5-5--5-5-5--5-5-5--5-5-5--5-5-5--5-5-5----------------------|
E|--------------------------------------------5--3--2-------------|

Este Riff se toca sobre el intro

E|---------------------------------------------17-----17-19------|
B|--17-19-20-----20-19h20p19----------20-19-20-----20------------|
G|-----------17--------------21-19-17----------------------------|
D|---------------------------------------------------------------|
A|---------------------------------------------------------------|
E|---------------------------------------------------------------|

E|-------------------------------20b-20b-20b-20b-20b-20b| —20b^^------|
B|--20| —19h20p19----------20-22^^------------------------------------|
G|--------------21-19-17--------------------------------------------|
D|------------------------------------------------------------------|
A|------------------------------------------------------------------|
E|------------------------------------------------------------------|

Aquí empieza a cantar……

No quiero hacer canciones………                       Fuiste tu quien mentia
E|---------------------------------------------------------------------|
B|---------------------------------------------------------------------|
G|----------7----5--7-----------7----5--7--9--11-----5--7--------------|
D|--2---5---7----5--7---2---5---7----5--7--9--11-----5--7--------------|
A|--2---5---5----3--5---2---5---5----3--5--7---9-----3--5--------------|
E|--0---3---------------0---3------------------------------------------|

E|------------------------------------------------------------------|
B|------------------------------------------------------------------|
G|------------------------------------------------------------------|
D|------------------------------------------------------------------|
A|--5-7-7--7-7-7--10-7-7--7-7-7--5-7-7--7-7-7--10-7-7--7-7-7--------|
E|------------------------------------------------------------------|
Despreciando mi amistad………
E|--------------------------------------------------------------------|
B|--------------------------------------------------------------------|
G|--5--7--------------------------------------------------------------|
D|--5--7--------------------------------------------------------------|
A|--3--5-----5-7-7--7-7-7--10-7-7--7-7-7--5-7-7--7-7-7--10-7-7--7-7-7-|
E|--------------------------------------------------------------------|
Conviertiendo el cielo en……     y ahora todo acabo…….
E|--------------------------------------------------------------------|
B|--------------------------------------------------------------------|
G|--5--7----9------7-----5-----7--------------------------------------|
D|--5--7----9------7-----5-----7--------------------------------------|
A|--3--5----7------5-----3-----5--------------------------------------|
E|--------------------------------------------------------------------|

E|--------------------------------------------------------------|
B|--------------------------------------------------------------|
G|--------------------------------------------------------------|
D|--------------------------------------------------------------|
A|--2-2-2--2-2-2--2-2-2| —-2-2---2-2-2-—2-2-2-—2-2--2-2-2-----|
E|--------------------------------------------------------------|
Perro traidor no vales nada….
E|----------------------------------------------------------|
B|----------------------------------------------------------|
G|----------------------------------------------------------|
D|----------------------------------------------------------|
A|------------------------------2-2-2--2-2-2-| —2-3-5--3-2-0--|
E|--0-0-0--0-0-0--0-2-3--5-3-2------------------------------|
Siembras veneno al hablar……
E|----------------------------|
B|----------------------------|
G|----------------------------|
D|--5---------7---5-----------|
A|--3----5----5---3-----------|
E|-------3--------------------|
Reventaras y tus entrañas…..
E|----------------------------------------------------------|
B|----------------------------------------------------------|
G|----------------------------------------------------------|
D|----------------------------------------------------------|
A|------------------------------2-2-2--2-2-2-| —2-3-5--3-2-0--|
E|--0-0-0--0-0-0--0-2-3--5-3-2------------------------------|
          Para los buitres seran
E|----------------------------|
B|----------------------------|
G|----------------------------|
D|--5---------7---5-----------|
A|--3----5----5---3-----------|
E|-------3--------------------|

Puente instumental……
E|---------------------------------------------------------------------|
B|---------------------------------------------------------------------|
G|---------------------------------------------------------------------|
D|--------5--4-----5----------------------------------------------------|
A|--2--5--3--2--2--3--5-5-5--5-5-5--5-5-5--5-5-5--5-5-5--5-5-5---------|
E|--0--3--------0----------------------------------------------5--3--2-|

Encima del puente intrumental se toca este riff……
E|---------------------15b-----------------------19----------------|
B|--19b-17-----20-19-------17-17-17--17-17-19--20--20-19| —19b-17----|
G|---------16-------21------------------------------------------16-|
D|-----------------------------------------------------------------|
A|-----------------------------------------------------------------|
E|-----------------------------------------------------------------|

E|-----------15b-------20b-20b-20b-20b-20b-20b| —20b^^^^-------|
B|--20-19---------22^^---------------------------------------|
G|--------21-------------------------------------------------|
D|-----------------------------------------------------------|
A|-----------------------------------------------------------|
E|-----------------------------------------------------------|

Empieza otra vez a cantar……

Solo hay que hacer prmesas.                        Fuiste tu quien mentia
E|---------------------------------------------------------------------|
B|---------------------------------------------------------------------|
G|----------7----5--7-----------7----5--7--9--11-----5--7--------------|
D|--2---5---7----5--7---2---5---7----5--7--9--11-----5--7--------------|
A|--2---5---5----3--5---2---5---5----3--5--7---9-----3--5--------------|
E|--0---3---------------0---3------------------------------------------|

E|------------------------------------------------------------------|
B|------------------------------------------------------------------|
G|------------------------------------------------------------------|
D|------------------------------------------------------------------|
A|--5-7-7--7-7-7--10-7-7--7-7-7--5-7-7--7-7-7--10-7-7--7-7-7--------|
E|------------------------------------------------------------------|
Despreciando mi amistad………
E|--------------------------------------------------------------------|
B|--------------------------------------------------------------------|
G|--5--7--------------------------------------------------------------|
D|--5--7--------------------------------------------------------------|
A|--3--5-----5-7-7--7-7-7--10-7-7--7-7-7--5-7-7--7-7-7--10-7-7--7-7-7-|
E|--------------------------------------------------------------------|
Conviertiendo el cielo en……     y ahora todo acabo…….
E|--------------------------------------------------------------------|
B|--------------------------------------------------------------------|
G|--5--7----9------7-----5-----7--------------------------------------|
D|--5--7----9------7-----5-----7--------------------------------------|
A|--3--5----7------5-----3-----5--------------------------------------|
E|--------------------------------------------------------------------|

E|--------------------------------------------------------------|
B|--------------------------------------------------------------|
G|--------------------------------------------------------------|
D|--------------------------------------------------------------|
A|--2-2-2--2-2-2--2-2-2| —-2-2---2-2-2-—2-2-2-—2-2--2-2-2-----|
E|--------------------------------------------------------------|
Perro traidor no vales nada….
E|----------------------------------------------------------|
B|----------------------------------------------------------|
G|----------------------------------------------------------|
D|----------------------------------------------------------|
A|------------------------------2-2-2--2-2-2-| —2-3-5--3-2-0--|
E|--0-0-0--0-0-0--0-2-3--5-3-2------------------------------|
Siembras veneno al hablar……
E|----------------------------|
B|----------------------------|
G|----------------------------|
D|--5---------7---5-----------|
A|--3----5----5---3-----------|
E|-------3--------------------|
Reventaras y tus entrañas…..
E|----------------------------------------------------------|
B|----------------------------------------------------------|
G|----------------------------------------------------------|
D|----------------------------------------------------------|
A|------------------------------2-2-2--2-2-2-| —2-3-5--3-2-0--|
E|--0-0-0--0-0-0--0-2-3--5-3-2------------------------------|
          Para los buitres seran
E|----------------------------|
B|----------------------------|
G|----------------------------|
D|--5---------7---5-----------|
A|--3----5----5---3-----------|
E|-------3--------------------|

Puente instumental……
E|---------------------------------------------------------------------|
B|---------------------------------------------------------------------|
G|---------------------------------------------------------------------|
D|--------5--4-----5----------------------------------------------------|
A|--2--5--3--2--2--3--5-5-5--5-5-5--5-5-5--5-5-5--5-5-5--5-5-5---------|
E|--0--3--------0----------------------------------------------5--3--2-|

Encima del puente intrumental se toca este riff……
E|---------------------15b-----------------------19----------------|
B|--19b-17-----20-19-------17-17-17--17-17-19--20--20-19| —19b-17----|
G|---------16-------21------------------------------------------16-|
D|-----------------------------------------------------------------|
A|-----------------------------------------------------------------|
E|-----------------------------------------------------------------|

E|-----------15b-------20b-20b-20b-20b-20b-20b| —20b^^^^-------|
B|--20-19---------22^^---------------------------------------|
G|--------21-------------------------------------------------|
D|-----------------------------------------------------------|
A|-----------------------------------------------------------|
E|-----------------------------------------------------------|

Solo!!!!!!!!!!!!!!!!!
E|-----------------------------------10-12-14-15-14-12-10-------------|
B|------------15b^^----------10-12-14--------------------14-12--------|
G|------------------7-9-11-12-----------------------------------------|
D|--------------------------------------------------------------------|
A|--------------------------------------------------------------------|
E|--/17-15-14---------------------------------------------------------|

E|---------------------------------------------------------------------|
B|---------------------------------------------------------------------|
G|------------------------------------------9--9---9--7--7--5--5--4-4--|
D|-14-12-10-9------------7-9-10-14-12---12-----------------------------|
A|-----------7-5-5-7-9-10----------------------------------------------|
E|--------------8------------------------------------------------------|

E|-----------------------------------14-15-17-17-15-14--15-14-----------|
B|------------------------------15-17-----------------17-----17-15-14---|
G|-------------------12-14-16-17----------------------------------------|
D|-12-14--12-14-12-15---------------------------------------------------|
A|------14--------------------------------------------------------------|
E|----------------------------------------------------------------------|

E|-------------------------------------------------------------|
B|-------------------------------------------------------------|
G|-16-14-13------------14b^^-----------------------------------|
D|---------16-15-13--------------------------------------------|
A|-----------------16-------14-15-12--14--12-14-15-12-14--12---|
E|--------------------------------------15--------------15-----|

E|--------------------------------------------------------------------|
B|--------------------------------------------------------------------|
G|--------------------------------------------------------------------|
D|--------------------------------------------------------------------|
A|-14-15-12--14-10-12--9-10-9--7-5-3--7-3-2--3-5-2--0-----------------|
E|---------------------------------------------------3-2--3-2-0-------|

E|-----------------------------1214| —17b^^--151412--12—19171514----------
B|-----------------------121315------------------15--12--------17151312-|
G|-------------------1214-----------------------------------------------|
D|-------------121416---------------------------------------------------|
A|-------121415---------------------------------------------------------|
E|-121415---------------------------------------------------------------|

E|------------------------------------------------------------------|
B|------------------------------------------------------------------|
G|-1412------------------------------11-12-11-9----9-11-12-11-9---9-|
D|-----161412------12---------------------------12--------------12--|
A|-----------151415--151412-----------------------------------------|
E|-------------------------15141210-7-------------------------------|

E|------------------------------------------------------------------22^^|
B|----------------------------------------------------------------------|
G|-12-14-12-11----11-16-14-12----12-------------------------------------|
D|-------------14-------------16----16-14-12-14-12----------------------|
A|-------------------------------------------------15-14-15-14-12-------|
E|----------------------------------------------------------------10----|

Debajo del solo va esto……
E|-------------------------------------------------------|
B|-------------------------------------------------------|
G|----------7---5---7-----------7---5---7---9---11-------|
D|--2---5---7---5---7---2---5---7---5---7---9---11-------|
A|--2---5---5---3---5---2---5---5---3---5---7----9-------|
E|--0---3---------------0---0----------------------------|

Fuiste tu quien mentia…….
E|--------------------------|
B|--------------------------|
G|-------5--7---------------|
D|-------5--7---------------|
A|-------3--5---------------|
E|--------------------------|

E|------------------------------------------------------------------|
B|------------------------------------------------------------------|
G|------------------------------------------------------------------|
D|------------------------------------------------------------------|
A|--5-7-7--7-7-7--10-7-7--7-7-7--5-7-7--7-7-7--10-7-7--7-7-7--------|
E|------------------------------------------------------------------|
Despreciando mi amistad………
E|--------------------------------------------------------------------|
B|--------------------------------------------------------------------|
G|--5--7--------------------------------------------------------------|
D|--5--7--------------------------------------------------------------|
A|--3--5-----5-7-7--7-7-7--10-7-7--7-7-7--5-7-7--7-7-7--10-7-7--7-7-7-|
E|--------------------------------------------------------------------|
Conviertiendo el cielo en……     y ahora todo acabo…….
E|--------------------------------------------------------------------|
B|--------------------------------------------------------------------|
G|--5--7----9------7-----5-----7--------------------------------------|
D|--5--7----9------7-----5-----7--------------------------------------|
A|--3--5----7------5-----3-----5--------------------------------------|
E|--------------------------------------------------------------------|

E|--------------------------------------------------------------|
B|--------------------------------------------------------------|
G|--------------------------------------------------------------|
D|--------------------------------------------------------------|
A|--2-2-2--2-2-2--2-2-2| —-2-2---2-2-2-—2-2-2-—2-2--2-2-2-----|
E|--------------------------------------------------------------|
Perro traidor no vales nada….
E|----------------------------------------------------------|
B|----------------------------------------------------------|
G|----------------------------------------------------------|
D|----------------------------------------------------------|
A|------------------------------2-2-2--2-2-2-| —2-3-5--3-2-0--|
E|--0-0-0--0-0-0--0-2-3--5-3-2------------------------------|
Siembras veneno al hablar……
E|----------------------------|
B|----------------------------|
G|----------------------------|
D|--5---------7---5-----------|
A|--3----5----5---3-----------|
E|-------3--------------------|
Reventaras y tus entrañas…..
E|----------------------------------------------------------|
B|----------------------------------------------------------|
G|----------------------------------------------------------|
D|----------------------------------------------------------|
A|------------------------------2-2-2--2-2-2-| —2-3-5--3-2-0--|
E|--0-0-0--0-0-0--0-2-3--5-3-2------------------------------|
          Para los buitres seran
E|----------------------------|
B|----------------------------|
G|----------------------------|
D|--5---------7---5-----------|
A|--3----5----5---3-----------|
E|-------3--------------------|

Final!!!!
E|----------------------------------------------------------|
B|----------------------------------------------------------|
G|----------------------------------------------------------|
D|----------------------------------------------------------|
A|------------------------------2-2-2--2-2-2-| —2-3-5--3-2-0--|
E|--0-0-0--0-0-0--0-2-3--5-3-2------------------------------|

E|----------------------------------------------------------|
B|----------------------------------------------------------|
G|----------------------------------------------------------|
D|----------------------------------------------------------|
A|-----------------------------3-3-3--3-3-3--3-5-7--5-3-2---|
E|--3-3-3--3-3-3--3-5-7--8-7-5------------------------------|

E|----------------------------------------------------------|
B|----------------------------------------------------------|
G|----------------------------------------------------------|
D|-4-------------4-------------4-------------4--4-----------|
A|-2-2-2--2-2-2--2-2-2--2-2-2--2-2-2--2-2-2--2--2-----------|
E|----------------------------------------------------------|

E|--------------2-3-5-7--15-14-12-10------------------------------------|
B|-----------3-5--------------------14-12-10-12-11-9-7------------------|
G|------2-4-6-----------------------------------------10-9-7-5----------|
D|-2-4-5-------------------------------------------------------8-7-5-3-2|
A|----------------------------------------------------------------------|
E|----------------------------------------------------------------------|

E|------|
B|------|
G|------|
D|------|
A|--2---|
E|--0---|
Página 1 / 1

Letras e título
Acordes e artista

resetar configurações
OK