Por la puerta de atrás

Saratoga

Composição de: Jeronimo Ramiro
tom: C

intro:
E|--------------------------------------8-------------------------|
B|---/10-9-----8h10p8---------8----8/10---10--8-----8h10p8-------------|
G|---------10---------10--7-7---7----------------10---------10--7****--|
D|----------------------------------------------------------------|
A|----------------------------------------------------------------|
E|---------------------------------------------------------------|
   F                 Dm 
Luminosos en el camino

F                    C 
que me inspiran una nueva cancion.

F                 Dm 
La autopista esta vacia,

F                   C 
negro y gris, mezcla de alcohol y sudor.

Dm                    F            C 
Algo cansado, enciendo un cigarrillo mas.

Dm                    F            C 
Poco sacamos, no hubo ni para el hostal.

F                     Dm             C 
Y aun me queda mucho tiempo para llegar.


E|--------------------------------------8-------------------------|
B|---/10-9-----8h10p8---------8----8/10---10--8-----8h10p8-------------|
G|---------10---------10--7-7---7----------------10---------10--7****--|
D|----------------------------------------------------------------|
A|----------------------------------------------------------------|
E|---------------------------------------------------------------|
Esta parte se hace igual que la anterior:



He bajado a 120,

otra multa, no lo quiero pensar.

Vaya tipo el del garito,

tanto hablar y no queri­a pagar.

como explicarte que hay algo que no funciono?

No habi­a carteles, la lluvia, el futbol, que se yo.

Y a la hora del concierto, no habi­a ni dios.

coro:

 Dm                F 
Por la puerta de atras

F             C 
me sientes llegar.

Dm            F            C 
Derrotado, y no me quieres hablar.

 D                     F        C 
Por la puerta de atras, una vez mas,

 D                      F        C 
frio intenso hay en mi espina dorsal.


esto se hace igual que el anterior:




Y mañana sera¡ otro di­a.

Se que el sabado tambien llegara¡.

Y con el la loteri­a,

hoy presiento que nos va a tocar.

Ya amanece, resisto a base de cafe.

Si alguien se duerme, se baja y sigo hasta Madrid.

Y aun nos queda mucho tiempo para llegar.

--coro--.y  luego

E|--------------------------------------8-------------------------|
B|---/10-9-----8h10p8---------8----8/10---10--8-----8h10p8---------|
G|---------10---------10--7-7---7----------------10---------10--7-|
D|----------------------------------------------------------------|
A|----------------------------------------------------------------|
E|---------------------------------------------------------------|
Página 1 / 1

Letras e título
Acordes e artista

resetar configurações
OK