Cifra Club

Si Amaneciera

Saratoga

Cifra: Versão 6 (violão e guitarra)
tom: C#m
E|----------------------------------------------------|
B|--------------------------------12-12/14---14-15----|
G|--------------------------111314-----------------14-|
D|--------------------111214--------------------------|
A|--7/16/7------111214--------------------------------|
E|----------1214--------------------------------------|

E|-----------------------------------17-----------------------------|
B|--14/19-17--15-14--15-14------------------------------------------|
G|-------------------------16-14| —16b----16b14-16----14-16-14--------|
D|-----------------------------------------------16----------16-14--|
A|------------------------------------------------------------------|
E|------------------------------------------------------------------|

E|---------------------------------14-16-17-17^--16-14-16-----------|
B|--------17-17---17b--17------14-----------------------------------|
G|--16/18--------------------14-------------------------------------|
D|------------------------------------------------------------------|
A|------------------------------------------------------------------|
E|------------------------------------------------------------------|

E|-141614----14----14-16-141614-----14^^-|
B|--------17----17--------------17-------|
G|---------------------------------------|
D|---------------------------------------|
A|---------------------------------------|
E|---------------------------------------|

E|---------------------------------------------|
B|---------------------------------------------|
G|----------------------------------------16---|
D|--------------161416--------------161819-----|
A|----------1416----------------1416-----------|
E|--12/14-17------------12/14-17---------------|

E|--14^^^^---------------------------------------------1614/21--|
B|-------------------------------------------------1719---------|
G|-------------------------------------------141619-------------|
D|-------------------------------------141618-------------------|
A|-----------------1416------1416171617-------------------------|
E|---------12/14-17----141617-----------------------------------|

E|--22b^^^^-21b-21-21----------------------------------------------|
B|--------------------17---19-17----19-17--------------------------|
G|-------------------------------18-------18-16-18-16b--------16---|
D|------------------------------------------------------19-16----19|
A|-----------------------------------------------------------------|
E|-----------------------------------------------------------------|
           T   T         T   T        T        T        T        T
E|--9-12141914171412-9--1914171412-9| —191412-9-191412-9-191412-9-191419-9
B|----------------------------------------------------------------------|
G|----------------------------------------------------------------------|
D|----------------------------------------------------------------------|
A|----------------------------------------------------------------------|
E|----------------------------------------------------------------------|

E|--8^^^--8-10-7---7-8-7| —5^^^^------------
B|----------------------------------------|
G|----------------------------------------|
D|----------------------------------------|
A|----------------------------------------|
E|----------------------------------------|
00:00 / 00:00
Outros vídeos desta música
Repetir
Outros vídeos desta música
Composição de Jero
    • ½ Tom
    • Am
    • Bbm
    • Bm
    • Cm
    • C#m
    • Dm
    • Ebm
    • Em
    • Fm
    • F#m
    • Gm
    • G#m
  • Adicionar à lista

    0 comentários

    Ver todos os comentários

    Conseguiu tocar?

    0 Tocaram 0 Ainda não

    Grave um vídeo tocando Si Amaneciera e nos envie!

    00:00 / 00:00

    Cifra Club Pro

    Aproveite o Cifra Club com benefícios exclusivos e sem anúncios
    Cifra Club Pro
    Aproveite o Cifra Club com benefícios exclusivos e sem anúncios
    OK