Cifra Club

Lucky Day

Sascha Schmitz

Tab de baixo: Principal
                                                                                  
Bass



     Q    Q    E  E  Q       Q    Q    Q    Q       Q    Q    Q    Q     
G||--0--------------------|----------------------|--0---------2----3----|
D||-------0---------------|--1----1----0---------|-------0--------------|
A||------------1--3--1----|-----------------0----|----------------------|
E||-----------------------|----------------------|----------------------|


  Q    Q    Q    Q       Q    Q    Q    Q       Q    Q    Q    Q     
----------------------|--0---------0---------|--0---------0---------|
--1----1----0---------|-------0---------0----|-------0---------0----|
-----------------0----|----------------------|----------------------|
----------------------|----------------------|----------------------|


  Q    Q    Q    Q       Q    Q    Q    Q       Q    Q    Q    Q     
----------------------|----------------------|--0---------0---------|
--2---------2---------|--1----1----0---------|-------0---------0----|
-------1---------1----|-----------------0----|----------------------|
----------------------|----------------------|----------------------|


  Q    Q    Q    Q       Q    E  E  Q    E  E     Q    E  E  E  E  E  E   
--0---------0---------|------------------------|-------------------------|
-------0---------0----|--0----------0----------|--0----------0--0--------|
----------------------|-------0--4-------0--4--|-------0--4--------3--0--|
----------------------|------------------------|-------------------------|


  Q    Q    Q    Q       Q    Q    Q    Q       Q    Q    Q    Q     
--0---------0---------|--0---------0---------|----------------------|
-------0---------0----|-------0---------0----|--2---------2---------|
----------------------|----------------------|-------1---------1----|
----------------------|----------------------|----------------------|


  Q    Q    Q    Q       Q    Q    Q    Q       Q    Q    Q    Q     
----------------------|--0---------0---------|--0---------0---------|
--1----1----0---------|-------0---------0----|-------0---------0----|
-----------------0----|----------------------|----------------------|
----------------------|----------------------|----------------------|


  Q    E  E  Q    E  E     E.  S E  E  Q    E  E     Q    Q    E.  S E  E   
------------------------|-------------------0--2--|------------------------|
--0----------0----------|--0---0-1--2--3----------|---------------------0--|
-------0--4-------0--4--|-------------------------|--1---------1---1-3-----|
------------------------|-------------------------|-------1----------------|


  Q    Q    E.  S E  E     Q    Q    Q    Q       Q    Q    E.  S E  E   
---------------------2--|--0---------0---------|------------------------|
--0---------0---0-2-----|-------0---------0----|--1---------1---1-0-----|
-------0----------------|----------------------|-------1-------------3--|
------------------------|----------------------|------------------------|


  Q    Q    E  E  E  E     Q    Q    E  E  E  E     Q    Q    Q    Q     
------------------------|------------------------|--0---------0---------|
---------------------0--|--0---------0--0--2--4--|-------0---------0----|
--1---------1--1--3-----|-------0----------------|----------------------|
-------1----------------|------------------------|----------------------|


  Q    Q    H           Q    Q    Q    Q       Q    Q    Q    Q     
---------------------|--0---------2----3----|----------------------|
--1----1----0--------|-------0--------------|--1----1----0---------|
---------------------|----------------------|-----------------0----|
---------------------|----------------------|----------------------|


  Q    Q    Q    Q       Q    Q    E  Q.        Q    Q    Q    Q     
--0---------2----3----|----------------------|--0---------0---------|
-------0--------------|--1----1----0---------|-------0---------0----|
----------------------|----------------------|----------------------|
----------------------|----------------------|----------------------|


  Q    Q    Q    Q       Q    Q    Q    Q       Q    Q    Q    Q     
--0---------0---------|----------------------|----------------------|
-------0---------0----|--2---------2---------|--1----1----0---------|
----------------------|-------1---------1----|-----------------0----|
----------------------|----------------------|----------------------|


  Q    Q    Q    Q       Q    Q    Q    Q       Q    E  E  Q    E  E   
--0---------0---------|--0---------0---------|------------------------|
-------0---------0----|-------0---------0----|--0----------0----------|
----------------------|----------------------|-------0--4-------0--4--|
----------------------|----------------------|------------------------|


  E.  S E  E  Q    E  E     Q    Q    E.  S E  E     Q    Q    E.  S E  E   
-------------------0--2--|------------------------|---------------------2--|
--0---0-1--2--3----------|---------------------0--|--0---------0---0-2-----|
-------------------------|--1---------1---1-3-----|-------0----------------|
-------------------------|-------1----------------|------------------------|


  Q    Q    Q    Q       Q    Q    E.  S E  E     Q    Q    E  E  E  E   
--0---------0---------|------------------------|------------------------|
-------0---------0----|--1---------1---1-0-----|---------------------0--|
----------------------|-------1-------------3--|--1---------1--1--3-----|
----------------------|------------------------|-------1----------------|


  Q    Q    E  E  E  E     Q    Q    Q    Q       Q    Q    H           W                 
------------------------|--0---------0---------|---------------------|--0----------------|
--0---------0--0--2--4--|-------0---------0----|--1----1----0--------|-------------------|
-------0----------------|----------------------|---------------------|-------------------|
------------------------|----------------------|---------------------|-------------------|


  W                   W                   W                   W                 
-------------------|-------------------|-------------------|--0----------------|
--2----------------|-------------------|--0----------------|-------------------|
-------------------|--1----------------|-------------------|-------------------|
-------------------|-------------------|-------------------|-------------------|


  W                   H        H           Q    Q    Q    Q       Q    Q    Q    Q     
-------------------|--------------------|----------------------|----------------------|
--2----------------|--------------------|--0---------0----0----|----------------------|
-------------------|--1--------1--------|-------0--------------|--3---------3---------|
-------------------|--------------------|----------------------|-------3---------3----|


  E  E  E  E  E  E  E  E     Q    Q    E.  S E  E     Q    Q    E.  S E  E   
-----------------0--2--3--|------------------------|---------------------2--|
-----0--1--0--3-----------|---------------------0--|--0---------0---0-2-----|
--3-----------------------|--1---------1---1-3-----|-------0----------------|
--------------------------|-------1----------------|------------------------|


  Q    Q    Q    Q       Q    Q    E.  S E  E     Q    Q    E  E  E  E   
--0---------0---------|------------------------|------------------------|
-------0---------0----|--1---------1---1-0-----|---------------------0--|
----------------------|-------1-------------3--|--1---------1--1--3-----|
----------------------|------------------------|-------1----------------|


  Q    Q    E  E  E  E     Q    Q    Q    Q       Q    Q    E.  S E  E   
------------------------|--0---------0---------|------------------------|
--0---------0--0--2--4--|-------0---------0----|--1---------1---1-0-----|
-------0----------------|----------------------|-------1-------------3--|
------------------------|----------------------|------------------------|


  Q    Q    E.  S E  E     Q    Q    E.  S E  E     Q    Q    Q    Q     
------------------------|---------------------2--|--0---------0---------|
---------------------0--|--0---------0---0-2-----|-------0---------0----|
--1---------1---1-3-----|-------0----------------|----------------------|
-------1----------------|------------------------|----------------------|


  Q    Q    E.  S E  E     Q    Q    E  E  E  E     Q    Q    E  E  E  E   
------------------------|------------------------|------------------------|
--1---------1---1-0-----|---------------------0--|--0---------0--0--2--4--|
-------1-------------3--|--1---------1--1--3-----|-------0----------------|
------------------------|-------1----------------|------------------------|


  Q    Q    Q    Q       Q    Q    H           Q    Q    Q    Q     
--0---------0---------|---------------------|--0---------2----3----|
-------0---------0----|--1----1----0--------|-------0--------------|
----------------------|---------------------|----------------------|
----------------------|---------------------|----------------------|


  Q    Q    Q    Q       Q    Q    Q    Q       Q    Q    Q    Q     
----------------------|--0---------2----3----|----------------------|
--1----1----0---------|-------0--------------|--1----1----0---------|
-----------------0----|----------------------|-----------------0----|
----------------------|----------------------|----------------------|


  Q    Q    Q    Q       Q    Q    Q    Q       W                                     
--0---------2----3----|----------------------|-------------------|-------------------|
-------0--------------|--1----1----0---------|-------------------|-------------------|
----------------------|-----------------0----|-------------------|-------------------|
----------------------|----------------------|--3----------------|-------------------|


-------------------||
-------------------||
-------------------||
-------------------||




Duration Legend
---------------
W - whole
H - half
Q - quarter
E - 8th
S - 16th
T - 32nd
X - 64th
. - note dotted


Tablature Legend
----------------
L - tied note
x - dead note
(n) - ghost note
> - accentuded note
NH - natural harmonic
AH - artificial harmonic
TH - tapped harmonic
SH - semi harmonic
PH - pitch harmonic
h - hammer on
p - pull off
b - bend
br - bendRelease
pb - preBend
pbr - preBendRelease
brb - bendReleaseBend
\n/ - tremolo bar dip
\n - tremolo bar dive
-/n - tremolo bar Release up
/n\ - tremolo bar inverted dip
/n - tremolo bar return
-\n - tremolo bar Release down
S - shift slide
s - legato slide
/ -  slide into from below or out of upwards
\ -  slide into from above or out of downwards
~ - vibrato
W - wide vibrato
tr - trill
TP - tremolo picking
T - tapping
S - slap
P - pop
< - fade in
^ - brush up
v - brush down
00:00 / 00:00
Outros vídeos desta música
Repetir
Outros vídeos desta música
Compositor não encontrado.
230 exibições

0 comentários

Ver todos os comentários

Conseguiu tocar?

0 Tocaram 0 Ainda não

Grave um vídeo tocando Lucky Day e nos envie!

Entre para oCifra Club PRO

Tenha acesso a benefícios exclusivos no App e no Site

  • Chega de anúncios

  • Prioridade de compra em lançamentos

  • Mais recursos no app do Afinador

  • Atendimento Prioritário

  • Descontos nos produtos Cifra Club

  • Ajude a produzir mais conteúdo

00:00 / 00:00

Cifra Club Pro

Aproveite o Cifra Club com benefícios exclusivos e sem anúncios
Cifra Club Pro
Aproveite o Cifra Club com benefícios exclusivos e sem anúncios
OK