Cifra Club

Aprenda

Firefly

Saves The Day

Tab de baixo: Principal
is xxvrufiovxx.  I can’t tab anything after the album Stay What You Are because I don’t
the songs.)

I’ve been playing this song for years and I think it’s one of the greatest songs ever,
gifted band in the world, their bass player at the time was great in my opinion.  I’ve 
other tabs for this song but none of them do it any justice.  Hopefully this one works
for you guys.


(“I said I’d walk you home...”):
G|-------------------------------------|
D|-------------------------------------|
A|-------------------------------------|
E|-4-44-444-444-444-0-00-000-000-0-2-4-|

cont.
G|------------------------------------|
D|------------------1-4-44-444-444-44-|
A|-2-22-222-222-2-4-------------------|
E|------------------------------------|

(“We’re up and we’re out and...”):
G|----------------------------------------|
D|----------------------------------------|
A|---------/7-77-77-----------7-7-7-7-7p6-|
E|-4-44-44----------2-22-22-2-------------|

cont.
G|-----------------------------------------|
D|-----------------------------------------|
A|---------/7-77-77------------------------|
E|-4-44-44----------2-22-22-22-222-22-22-2-|

(“I know you’re next to me...”)
G|----------------------------------------------------|
D|----------------------------------------------------|
A|-2222222222222-77777777-7-7-44444444-44-7-77-777-7\-|
E|----------------------------------------------------|

(“Keep pumpin’ now, legs to beat...”)
G|-------------------------------------|
D|-------------------------------------|
A|-------------------------------------|
E|-4-44-444-444-444-0-00-000-000-0-2-4-|

cont.
G|---------------------------------------|
D|-----------------------4-44-444-444-44-|
A|-2-22-222-222------2h4-----------------|
E|--------------0h2h4--------------------|

(“Run down this alley way...”):
G|----------------------------------------------------------|
D|--------------------------------4-44-444-444-44-1-1-------|
A|----------/7-77\---------2-22-----------------------4-2---|
E|-4-44x-------------0h2h4--------------------------------2-|

(“Prepare to, be ravished...”):
G|----------------------------------------|
D|----------------------------------------|
A|----------4h7-77-7\---------7-7-7-7-7p6-|
E|-4-44-4h7-----------2-22-22-------------|

cont.
G|-----------------------------------------|
D|-----------------------------------------|
A|---------/7-77-77------------------------|
E|-4-44-44----------2-22-22-22-222-22-22-2-|

(“I know you’re under me...”):
G|----------------------------------------------------|
D|----------------------------------------------------|
A|-2222222222222-77777777-7-7-44444444-44-7-77-777-7\-|
E|----------------------------------------------------|

Part right before “guitar solo”:
G|-------------------------------------|
D|-------------------------------------|
A|-----4h6-6-----4h6-6-2~///----2~-----|
E|-4-4-------2-2------------0~------0~-|

The bass plays the first three notes of the guitar solo with the guitar:
G|----------|
D|----------|
A|----------|
E|-0-2h4~---|

Now break for the solo and singing part.  Right at the end of it, you’ll hear the bass
in right as the drums do with a little fill:
G|---------------|
D|-----4-4-1-----|
A|-0h2-------4---|
E|-------------2-|

Outro(“To me you are the light...”):
G|----------------------------|
D|----------------------------|
A|----------------------------| x2
E|-4-44-4-2-22-2-0-0-0-00-0-0-|

cont.
G|---------------------------------|
D|-------------1h4p1---------------|
A|---------------------------2p1---|
E|-4-44-4-2-22-------0-00-00-----2-|

cont.
G|-----------------------------------|
D|-----------------------------------|
A|---------------/7-777-9-99-77-7-7\-|
E|-4-44-4-2-22-2---------------------|

cont.(“And it smothers me...”):
G|------------------------------------------|
D|-----4------------------------------------|
A|---6--------------4h6p4-----4h6-4h6-6p4---|
E|-4-----2-22-2-0-0-------0-0-------------0-|

cont.
G|---------------------------------|
D|---------------------/6666-6p4---|
A|-------------------------------4-|
E|-4-44-4-2-22-2-0-000-------------|

cont.(“As the smoke reaches the sky...”):
G|----------------------------|
D|----------------------------|
A|--------------------2-4-----|
E|-4-44-4-2-22-2-0-00-----0-0-|

cont.(“Know I’m burnin’ tonight...”):
G|------------------------------|
D|------------------------------|
A|-------------6p77-777-777-777-|
E|-4-4-4-2-2-2------------------|

cont.
G|-----------------------------------|
D|-----------------------------------|
A|-----4h6-6-----4h6-6---------------| x3
E|-4-4-------2-2-------0-0-0-0-0-0-0-|

Last bar(“Know I’ll burn for you tonight.”)
G|------------------------|
D|------------------------|
A|-----4h6-6--------------|
E|-4-4-------2-2/---0~~~~-|

This tab is not 100% correct but it definitely gives you way more of the fills then the
tab on the site.
261 exibições

0 comentários

Ver todos os comentários

Conseguiu tocar?

0 Tocaram 0 Ainda não

Grave um vídeo tocando Firefly e nos envie!

00:00 / 00:00
outros vídeos desta música
repetir qualidade Automático
Outros vídeos desta música
00:00 / 00:00
Automático

Cifra Club Pro

Aproveite o Cifra Club com benefícios exclusivos e sem anúncios
Cifra Club Pro
Aproveite o Cifra Club com benefícios exclusivos e sem anúncios
OK