Cifra Club

Aprenda

Nightingale

Saves The Day

Tab de baixo: Principal
xxvrufiovxx.)

Please note that the timing is not correct.  Listen to the song, as the notes in the 
are pretty spread out.


Come in at :19 with:
G|----------------------------------------|
D|--------------------------------------4-|
A|---4h6-------------1-2-----1-2----4/6---|
E|-4-----0---0-0-4-------0-------4--------|

(“Ceilings don’t exist...”):
G|----------------------------------------------------|
D|-2-22222222222--------------------------------------|
A|------------------------4h6-4h6-4-----------/777777-|
E|---------------4-444444-----------0-0000000---------|

(“Would you become my queen...”):
G|---------------|
D|---------------|
A|---------------|
E|-444444-222222-|

(“And I hope, your Majesty...”):
G|---------------------------------------|
D|---------------------------------------|
A|-----------2-22-2p1--------------------|
E|-0-0-0h2h4----------4-2-22-22--4-4-2-2-|

(“I’ll do everything I can...”):
G|-----------------------------------------|
D|-----------------------------------------|
A|-----------2-22-2p1----------------------|
E|-0-0-0-2h4----------4-22-2-0-2-4-4-2-4-2-|

(“And I’ll stare off through the...”):
G|--------------------------------------|
D|------------------------------------4-|
A|----------2-22-2-1----------------2---|
E|-0-00-0-2----------22-2-0-2-4-4-2-----|

(“Just kiss me before I go...”):
G|------------------------|
D|--------------------1-4-|
A|----------2-22-2-4-2----|
E|-0-00-0-2---------------|

(“I’ll have to walk a thousand miles...”):
G|--------------------------------------------|
D|--------------------------------------4-----|
A|--------------4h6-----------------2h4---2---|
E|-0--0-0-4---4-----0--0-0-4--4-0-4---------4-|

(“You could throw me down...”):
G|---------------------------------------------|
D|-----------------4---------------------------|
A|---777777777-2h4---4p2-------------4h6-4h6-4-|
E|-0---------------------4-4444444\0-----------|

G|-------------------------------------------|
D|----------------------------4---4-4444p1---|
A|-7777777777-2222p1--------6---6----------4-|
E|-------------------2-4-44------------------|

(“I hope your majesty...”):
G|----------------------------------------|
D|----------------------------------------|
A|------------2-22-2p1--------------------|
E|-0-00-0h2h4----------4-2-22-202-4-4-2-2-|

G|------------------------------------------|
D|------------------------------------------|
A|------------2-22-2p1----------------------|
E|-0-00-0h2h4----------4-2-22-202-4-4-2-4-2-|

(“And I’ll stare off through...”):
G|-----------------------------------4-3--------|
D|---2222-1-----------------------/6-----6p4-2--|
A|----------4-2-2222p1--------2-----------------|
E|-0-------------------2-22-2---2---------------|

(“Just kiss me before I go...”):
G|------------------------------------3---4---3---|
D|-2-2222p1-----------4---4-444-444-4---4---4---4-|
A|----------4-2-22-/6---6-------------------------|
E|------------------------------------------------|

(“The nightingales....”):
G|--------------------------------------|
D|--------------------------------------|
A|----------------------------------1-2-|
E|-00-0-0-0-0-0-0h2-0-44-4-4-4-4-4-4----|

cont.
G|----------------------------------------|
D|------------------------------------4h6-|
A|---------------------------------66-----|
E|-00-0-0-0-0-000-0-2-44-4-4-4-4-4--------|

(“Marriage to our subjects....”)
G|-----------------------------------------------|
D|-------------1-------------------------1-4-1---|
A|---------------4-2---2-2-2-2-2-2-0h2h4-------4-|
E|-0-0-0-0-0-0-------4---------------------------|

G|------------------------------------------|
D|---------1111---------------------4-------|
A|--------------4-2-----2-2-2-2-2h4---2h4---|
E|-0-0-0-0----------4-2-------------------2-|

G|----------------------------------------------4-----|
D|-----------------1-1------66666-4-44444-0-4h6---6-4-|
A|---------------------4p2----------------------------|
E|-0-0-0-0-0-0h2h4------------------------------------|

(“And I hope you’re majesty...”):
G|-------------------------------------|
D|-------------------------------------|
A|-----------2-22-2-1------------------|
E|-0-0-0h2h4----------2-22-202-4-4-2-2-|

G|---------------------------------------|
D|---------------------------------------|
A|-----------2-22-2-1--------------------|
E|-0-0-0h2h4----------2-22-202-4-4-2-4-2-|

G|-----------------------------------------|
D|-----2222p1------------------------------|
A|------------4-2-2222p1-------------------|
E|-0-0-------------------4-2-22-22-4-4-2-2-|

(“Just kiss me before I go...”):
G|-----------------------------|
D|-----------------------------|
A|-----------2-22-2-22---------|
E|-0-0-0-2-4-----------2~~~~~~-|

This tab is not 100% correct but it will give you a good idea of what you need to do.  
very close, but not perfect.
144 exibições

0 comentários

Ver todos os comentários

Conseguiu tocar?

0 Tocaram 0 Ainda não

Grave um vídeo tocando Nightingale e nos envie!

00:00 / 00:00
outros vídeos desta música
repetir qualidade Automático
Outros vídeos desta música
00:00 / 00:00
Automático

Cifra Club Pro

Aproveite o Cifra Club com benefícios exclusivos e sem anúncios
Cifra Club Pro
Aproveite o Cifra Club com benefícios exclusivos e sem anúncios
OK