And The Bands Played On

Saxon

Composição de: Byford / Dawson
tom: C
|------------------------------------------------------|
|------------------------------------------------------|
|--7-/-9--9-9--5-/-7--7-7--7-/-9--9-9----5----7--------|
|--7-/-9--9-9--5-/-7--7-7--7-/-9--9-9----5----7--------|
|--5-/-7--7-7--3-/-5--5-5--5-/-7--7-7----3----5--------|
|------------------------------------------------------|

Riff B
|-------------------------------------------------|
|-------------------------------------------------|
|-------------------9--7--5----7----12-11---------|Gtr 
|----5-5------------9--7--5----7----12-11---------| II
|--7-----7p5---5-7--7--5--3----5----10-9----------|
|------------7------------------------------------|
                                                 
|-------------------------------------------------|
|-------------------------------------------------|
|-----12-12-----------------9--7--5---------7-----|Gtr
|--14-------14p12----12-14--9--7--5---------7-----| I
|-----------------14--------7--5--3---------5-----|
|-------------------------------------------------|

Riff C
|-----------------------------------------|
|-----------------------------------------|
|------------------5----------------------|Gtr 
|--5h7---5h7---5-7---7-5------------------| II
|------7-----7-----------7----------------|
|-----------------------------------------|
                                        
|-----------------------------------------|
|--------------------------13-------------|
|--12h14----12h14----12-14----14-12-------|Gtr
|--------14-------14----------------14----| I
|-----------------------------------------|
|-----------------------------------------|

|----------------------------|
|----------------------------|
|--5-5-5--7-7-7--9-9-9-------|
|--5-5-5--7-7-7--9-9-9-------|
|--3-3-3--5-5-5--7-7-7-------|
|----------------------------|

Página 1 / 1

Letras e título
Acordes e artista

resetar configurações
OK