Cifra Club

Aprenda

And The Bands Played On

Saxon

Tab de baixo: Principal
Intro:
G|--------------------------------------------------------------------------------|
D|--------------------------------------------------------------------------------|
A|--------------------------------------------------------------------------------|
E|-9-11-11-11--7-9-9-9--9-11-11-11--7-9--9-11-11-11--7-9-9-9--9-11-11-11--7-9-----|


Vers:
G|--------------------------------------------------------------------------------|
D|--------------------------------------------------------------------------------|
A|---------------------------------------------------------------------------9-7--|   x4
E|-11-11-11--11-11--11-11--11-11--11-11--11-11--9-7-7-7--7-7--7-7-7-9-9-9--9------|


Chorus:
G|--------------------------------------------------------------------------------|
D|--------------------------------------------------------------------------------|
A|--------------------------------------------------------------------------------|
E|-9-11-11-11--7-9-9-9--9-11-11-11--7-9--9-11-11-11--7-9-9-9--9-11-11-11--7-9-----|


Vers:
G|--------------------------------------------------------------------------------|
D|--------------------------------------------------------------------------------|
A|---------------------------------------------------------------------------9-7--|   x4
E|-11-11-11--11-11--11-11--11-11--11-11--11-11--9-7-7-7--7-7--7-7-7-9-9-9--9------|


Chorus:
G|--------------------------------------------------------------------------------|
D|--------------------------------------------------------------------------------|
A|--------------------------------------------------------------------------------|
E|-9-11-11-11--7-9-9-9--9-11-11-11--7-9--9-11-11-11--7-9-9-9--9-11-11-11--7-9-----|


Vers:
G|--------------------------------------------------------------------------------|
D|--------------------------------------------------------------------------------|
A|---------------------------------------------------------------------------9-7--|   x4
E|-11-11-11--11-11--11-11--11-11--11-11--11-11--9-7-7-7--7-7--7-7-7-9-9-9--9------|


The end:
G|--------------------------------------------------------------------------------|
D|--------------------------------------------------------------------------------|
A|--------------------------------------------------------------------------------|   x2
E|-9-11-11-11--7-9-9-9--9-11-11-11--7-9--9-11-11-11--7-9-9-9--9-11-11-11--7-9-----|
Composição de Byford / Dawson
114 exibições

0 comentários

Ver todos os comentários

Conseguiu tocar?

0 Tocaram 0 Ainda não

Grave um vídeo tocando And The Bands Played On e nos envie!

00:00 / 00:00
outros vídeos desta música
repetir qualidade Automático
Outros vídeos desta música
00:00 / 00:00
Automático

Cifra Club Pro

Aproveite o Cifra Club com benefícios exclusivos e sem anúncios
Cifra Club Pro
Aproveite o Cifra Club com benefícios exclusivos e sem anúncios
OK