Cifra Club

Aprenda

Back On The Streets

Saxon

Tab de baixo: Principal
standard tuning

Intro:
|-----------------|
|-----------------|
|-5-5-5-5-5-5-5-5-|
|-----------------|

Verse: Variation 1:
|-----------------|--------------------------|
|-----------------|-----------5-7-5----------|
|-----------------|---------7------7---------|
|-5-5-5-5-5-5-5-5-|-5-5-5-5----------5-5-5-5-|

Chorus:
|---------------------------------------|
|---------------------------------------|
|-3-3-3-3-3-3-3-3-3-\0/-5-5-5-5-5-5-5-5-|
|---------------------------------------|

Bridge & Solo Part
I don't know, sorry !
At the and play this:
|-----5----------<-----------------|
|----5-------5---<-----------------|
|-3-------3----3-<-3-3-3-3-3-3-3-3-|
|----------------<-----------------|
Composição de Saxon
Colaboração e revisão:
  • Taino Vieira
160 exibições

0 comentários

Ver todos os comentários

Conseguiu tocar?

0 Tocaram 0 Ainda não

Grave um vídeo tocando Back On The Streets e nos envie!

00:00 / 00:00
outros vídeos desta música
repetir qualidade Automático
Outros vídeos desta música
00:00 / 00:00
Automático

Cifra Club Pro

Aproveite o Cifra Club com benefícios exclusivos e sem anúncios
Cifra Club Pro
Aproveite o Cifra Club com benefícios exclusivos e sem anúncios
OK