Fire In The Sky

Saxon

tom: C
Riff A
|----------------------------------------------|
|----------------------------------------------|
|----------------------------------------------| 
|--5h7-----7h5-----5h7-----7--7-5--------------| 
|--0h0-0-0-0h0-0-0-0h0-0-0-0------7-6-5-3------|
|----------------------------------------------|

Riff B
|------------------------------------|
|------------------------------------|
|--2-2-2-2--5-7----2-2-2-2--7-5------| 
|--2-2-2-2--5-7----2-2-2-2--7-5------| 
|--0-0-0-0--3-5----0-0-0-0--5-3------|
|------------------------------------|

Riff C.1
|------------------------------------------------|
|--12--10------10------10--12--10------10--------|GtrI
|----------12------12--------------12------------|GtrI
|--9---7-------7-------7---9---7-------7---------|GtrII 
|----------10------10--------------10------------|GtrII
|------------------------------------------------|

Riff C.2
|------------------------------------------------|
|--12--10------10------10--12--10----------------|GtrI
|----------12------12--------------12--9---------|GtrI
|--9---7-------7-------7---9---7-----------------|GtrII 
|----------10------10--------------10--7---------|GtrII
|------------------------------------------------|

Riff D
|------------------------------------------------|
|------------------------------------------------|
|--4-4-4-4--7-9----4-4-4-4--9-7------------------|
|--4-4-4-4--7-9----4-4-4-4--9-7------------------|
|--2-2-2-2--5-7----2-2-2-2--7-5------------------|
|------------------------------------------------|

Riff E
|---------------------------------|
|---------------------------------|
|---------------------------------|
|---------------------------------|
|--2-4-5--2-4-5--4-5-7--4-5-7-----|
|--0-2-3--0-2-3--2-3-5--2-3-5-----|

|------------------------------|
|------------------------------|
|---------------5----2-2-------|
|--7-5----------5----2-2-------|
|------7-6-5-3--3----0-0-------|
|------------------------------|
Página 1 / 1

Letras e título
Acordes e artista

resetar configurações
OK