Rock City

Saxon

Composição de: Saxon
Intro: (00:07)
|-----------------------------------------------------|
|------------------------4-5-4------------------------|
|--------------5~--0-5-7-------5--------------5~------|
|-5~--55~--3~--------------------5~--55~--3~------5~--| 

Chorus: 
|------------------------------------|
|------------------------------------|
|--------------------5-5-5-5-5-5-5-5-|
|-/7-7-7-7-7-7-7-7-7-----------------| 3x

Verse:
|---------------------------------|
|---------------------------------|
|---------------------------------|
|-6-6-6-6-6-6-6-6-8-8-8-8-8-8-8-8-|

Intro:  (01:07) 
Chorus: (01:20) 3x
Verse:  (01:59) 
Intro:  (02:06) 
Solo:   (02:19) 

|---------------------------------|
|---------------------------------|
|-------------------------5-5-5-5-|
|-5-5-5-5-5-5-5-5-3-3-3-3---------| 2x 

Bridge:
|-----------------------------------|
|-----------------------------------|
|-----------------------------------|
|-5~----3-4-5-5-3-4-5-5-3-4-5-5-5-5-|

Outro: 
|-----------------|
|-----------------|
|-----------------|
|-5-5-5-5-5-5-5-5-| repeat it until the end
Página 1 / 1

Letras e título
Acordes e artista

resetar configurações
OK