Sixth Form Girls

Saxon

tom: E
Riff A
|--------------------------------------------------------------------|
|--------------------------------------------------------------------|
|--X-X-9-9-9--X-X-9-9-9--X-X-7-7-------------------------------------| 
|--X-X-9-9-9--X-X-9-9-9--X-X-7-7-------------------------------------| 
|--X-X-7-7-7--X-X-7-7-7--X-X-5-5--0-5-0-5-0-5-7b---------------------|
|--------------------------------------------------------------------|

Riff B                                                                    
|--------------------------------------------------------------------|
|--------------------------------------------------------------------|
|-2------2------4------4---------------------------------------------|Gtr 
|-2------2------4------4---------------------------------------------| I
|-0------0------2------2---------------------------------------------|
|--------------------------------------------------------------------|
                                                                    |
|--------------------------------------------------------------------|
|-3-4-3--3-4-4--5-6-5--5-6-5-----------------------------------------|
|-2-3-2--2-3-2--4-5-4--4-5-4-----------------------------------------|Gtr
|--------------------------------------------------------------------| II
|--------------------------------------------------------------------|
|--------------------------------------------------------------------|
                                            
Riff C           
|--------------------------------------------------------------------|
|--7-7--7-7--7-7--7-7--7-7--9-9--9-9--9-9--9-9-----------------------|
|--7-7--7-7--7-7--7-7--7-7--9-9--9-9--9-9--9-9-----------------------| 
|--7-7--7-7--7-7--7-7--7-7--9-9--9-9--9-9--9-9-----------------------| 
|--5-5--5-5--5-5--5-5--5-5--7-7--7-7--7-7--7-7-----------------------|
|--------------------------------------------------------------------|
Página 1 / 1

Letras e título
Acordes e artista

resetar configurações
OK