Cifra Club

Aprenda

City Sleeps In Flames

Scary Kids Scaring Kids

Cifra: Principal (violão e guitarra)
tom: C
seriously i dont get how the other tabbers of this song can be soo tone deaf. sheesh.
(not saying mine is perfect) but here is a way better sounding tab to this song.
enjoyy. drop d.

listen to the rhythm on ur own.
a lot of distortion.
e---------------------------------------------------------|
b---------------------------------------------------------|
g---------------------------------------------------------|
d-5-5-5-5-5--7-7-7-7-7-----7-5-4--------------------------|
a-2-2-2-2-2--3-3-3-3-3------------------------------------|
d---------------------------------------------------------|

play it over till the second verse. Listen carefully because sometimes they will have a 
harmonic on the 4th fret.


after "OR WE'RE LOST FOREVER tonight, tonight, tonight, TONIGHT"
first guitar
e------------------------------------------|
b------------------------------------------|
g------------------------------------------|
d----4p5-4p5---4p5-4p5----4p5-4p5----------|
a-2-2-------2-2-------2-2---------2-2------| then the pause and 2nd guitar
d-2-2-------2-2-------2-2---------2-2------| comes in
  * *       * *       * *         * *

VERSE
"We'll try to find a place to sleep"
first guitar
e---------------------------------------------------------|
b---------------------------------------------------------|
g---------------------------------------------------------|
d----4p5-4p5---4p5-4p5----4p5-4p7-----7-5-4*--------------|
a-2-2-------2-2-------3-3---------3-3---------------------|
d-2-2-------2-2-------------------------------------------|
  * *       * *       * *         * *
second guitar
e--------------------------------------------------------|
b--------------------------------------------------------|
g--------------------------------------------------------|
d----7p9-7p9---7p9-7p9----7p9--7p10------10-9-7*---------|
a-2-2-------2-2-------10-10---------10-10----------------|
d-2-2-------2-2-------10-10---------10-10----------------|
  * *       * *       * *           * *
then
second guitar
e--------------------------------------------------------|
b--------------------------------------------------------|
g--------------------------------------------------------|
d----7p9-7p9---7p9-7p9-----4p5-4p5-----2p4-2p4-----------|
a----------------------2-2---------0-0-------------------|
d-2-2-------2-2------------------------------------------|
  * *       * *        * *         * *

all that once again and then right b4 the pre chorus is..
e---------------------------------------|
b---------------------------------------|
g---------------------------------------|
d-9p10-7p9-5p7-4p5-2p4------------------|
a---------------------------------------|
d---------------------------------------|

chorus.(was the hardest part to tab so i kinda put whatever sounded cool)
second guitar
e----------------------------------------|
b-12p13-10p12-8p10-7p8-------------------|
g----------------------------------------|
d----------------------------------------|
a----------------------------------------|
d----------------------------------------|

first guitar
e------------------------------------------|
b------------------------------------------|
g------------------------------------------|
d-4---------5------------------------------|
a-2-(16x's)-2-(16x's)----------------------|
d-2---------2------------------------------|

e------------------------------------------|
b------------------------------------------|
g------------------------------------------|
d-----5-5-5-5-5-----7-7-7-7-7--------------|
a-----2-2-2-2-2-----3-3-3-3-3--------------|
d-0-0-----------0-0------------------------|

play verse again
and then kinda use the verse for the little breakdown b/c its the same thing with the 
down the frets.

email - *
myspace - *

hope it helped.
Composição de Scary Kids Scaring Kids
405 exibições
    • ½ Tom
    • A
    • Bb
    • B
    • C
    • Db
    • D
    • Eb
    • E
    • F
    • F#
    • G
    • Ab
  • Adicionar à lista

    0 comentários

    Ver todos os comentários

    Conseguiu tocar?

    0 Tocaram 0 Ainda não

    Grave um vídeo tocando City Sleeps In Flames e nos envie!

    00:00 / 00:00
    outros vídeos desta música
    repetir qualidade Automático
    Outros vídeos desta música
    00:00 / 00:00
    Automático

    Cifra Club Pro

    Aproveite o Cifra Club com benefícios exclusivos e sem anúncios
    Cifra Club Pro
    Aproveite o Cifra Club com benefícios exclusivos e sem anúncios
    OK