Cifra Club

Aprenda

Empty Glasses

Scary Kids Scaring Kids

Cifra: Principal (violão e guitarra)
tom: F
Tabbed by: Keenan Kosolowski
Email: K*

Tuning: Drop D (D,A,D,G,B,E)

Intro

e|--------------------------------------|
B|--------------------------------------|
G|--------5-5-2-2------5-5-2-2-4-4-0-0--|
D|---3-3-----------3-3------------------|
A|--------------------------------------|
D|--------------------------------------|
     * *
Verse

e|---------------------------------------------------------------------------|
B|---------------------------------------------------------------------------|x2
G|---------5---------5-------------------------------------------------------|
D|---------5---------5---------5---------------------------------------------|
A|--0-0-0--5--3-3-3--3---------5---------------------------------------------|
D|----------------------5-5-5--5---------------------------------------------|
    * * *     * * *     * * *

Chorus

e|--------------------------------------------------------------------------------------------|
B|--------------------------------------------------------------------------------------------|
G|-------9-----------10------------------------------------9-----------10---------------------|x2
D|-------7(x6)-------8-(x6)---7777777-10101010-5555--------7(x6)-------8---77777777-55555555--|
A|-------7-----------8--------7777777-10101010-5555--------7-----------8---77777777-55555555--|
D|-0-0-0-------0-0-0----------7777777-10101010-5555--0-0-0-------0-0-0-----77777777-55555555--|
   * * *       * * *                                 * * *       * * *

 On the third part of chorus, play this:
e|---------------------------------------------------------------------------|
B|---------------------------------------------------------------------------|
G|-------9-----------10------------------------------------------------------|
D|-------7(x6)-------8-(x6)--------------------------------------------------|(x1)
A|-------7-----------8-------------------------------------------------------|
D|-0-0-0-------0-0-0---------------------------------------------------------|
   * * *       * * *

Repeat first part of Intro x1

Verse x1

Intro x5

Chorus x4 1/2

Then play these in order 2x each, repeat 2x fully, then the first one again at the end. :

e|---------------------------------------------------------------------------|
B|---------------------------------------------------------------------------|
G|------5-5-2-2-----5-5-2-2-4-4-0-0-----5-5-2-2-----5-5-2-2-0-0--------------|
D|--3-3---------3-3-----------------3-3---------3-3--------------------------|
A|---------------------------------------------------------------------------|
D|---------------------------------------------------------------------------|
    * *         * *                 * *         * *
e|---------------------------------------------------------------------------|
B|-------5-5-3-3--------1-1-3-3/8-8-8-3h5------------------------------------|
G|---------------------------------------------------------------------------|
D|--3-3----------------------------------------------------------------------|
A|-----------------3-3-------------------------------------------------------|
D|---------------------------------------------------------------------------|
    * *            * *
Chorus x2 1/2

Intro x1 1/2

End on
e|---------------------------------------------------------------------------|
B|---------------------------------------------------------------------------|
G|---------------------------------------------------------------------------|
D|---------------------------------------------------------------------------|
A|--0-0----------------------------------------------------------------------|
D|---------------------------------------------------------------------------|
    * *

 For the part after the second chorus, I could not figure out the part with all the 
If you know it, please email me! I will put your name on the tab for credit!

 SCARY KIDS!


| /  slide up
| \  slide down
| h  hammer-on
| p  pull-off
| ~  vibrato
| +  harmonic
| x  Mute note
===============================================================================
Composição de Scary Kids Scaring Kids
247 exibições
    • ½ Tom
    • A
    • Bb
    • B
    • C
    • Db
    • D
    • Eb
    • E
    • F
    • F#
    • G
    • Ab
  • Adicionar à lista

    0 comentários

    Ver todos os comentários

    Conseguiu tocar?

    0 Tocaram 0 Ainda não

    Grave um vídeo tocando Empty Glasses e nos envie!

    00:00 / 00:00
    outros vídeos desta música
    repetir qualidade Automático
    Outros vídeos desta música
    00:00 / 00:00
    Automático

    Cifra Club Pro

    Aproveite o Cifra Club com benefícios exclusivos e sem anúncios
    Cifra Club Pro
    Aproveite o Cifra Club com benefícios exclusivos e sem anúncios
    OK