Goes Without Saying Intro

Scary Kids Scaring Kids

tom: C
tuning = standard

e|--------------------------------------------|
B|--------------------------------------------|
G|-----------------------------------------4--|
D|----------2------2------2--------------2----|
A|------3--------3------3------3-----3--------|
E|--0-5---5----5------5------5---5-4---4------|

then he rests a little bit

e|--------------------------------------------|
B|--------------------------------------------|
G|-----------------------------------------2--|
D|----------0------0------0--------------0----|
A|------2--------2------2------2-----0--------|
E|--0-3---3----3------3------3---3-1---1------|

then it repeats for 1 bajillion times

I was too lazy to figure out the chords
Página 1 / 1

Letras e título
Acordes e artista

resetar configurações
OK